Song name
# A B C D E F G H I J K L M N O P Q R S T U V W X Y Z

Mike And The Mechanics - If Only chords

Highlighted       Show chord diagrams
Intro: Abm   F#6   E   B   Abm   F#6   E   B

Abm   F#6    E               B
Still waters always run so deep
Abm             F#6
I've heard you cry in the night
E             B
And talk in your sleep

Bm           A
Why would you want to
G              F#m
Keep it all inside?
G            A
Now you're alone
     B  (Bass line goes from A  B (B7  B)
With nothing but your pride


Esus A    E6  E                  B
       If only you'd listened to me
      F#m            Bsus/E
Cos I still want you now
E                   B
 I don't want to be free
Esus A    E6  E                 B
       If only you listened to me
      F#m            Bsus/E
Cos I still feel the loss
E                   B
And it won't let me be
A                     B
oh no it wont let me be


Abm           F#6    E              B
   I've tried talking long into the night
Abm                  F#6
    but nothing that I tried to say
E               B
  Ever came out right

Bm                     A
   There's no point in crying
G               F#m
  My tears have run dry
G            A          B  (Bass line goes from A  B (B7  B)
 I hope that you're satisfied


Esus A    E6  E                  B
       If only you'd listened to me
      F#m            Bsus/E
Cos I still want you now
E                   B
 I don't want to be free
Esus A    E6  E                 B
       If only you listened to me
      F#m            Bsus/E
Cos I still feel the loss
E                   B
And it won't let me be
A                     B
oh no it wont let me be

Solo:
Abm   F#7   E   B   Abm   F#7   E   B

E---------------------------------------------------------------------|
B---7h9po7------7h9h7--7-------------------4--4-------------------|
G-------------------------------6s4--4--4--6--------6--4----4po3----|
D-------------------------------------------------------------------6-|
A---------------------------------------------------------------------|
E---------------------------------------------------------------------|

E--------------------------------------------------------------------|
B------7--9--11--9--7h9h7------------------------------------------|
G---8---------------------------8--8s6--6--4--4--4-----4--6s8--8---|
D----------------------------------------------------6---------------|
A--------------------------------------------------------------------|
E--------------------------------------------------------------------|

E--------------------------------------------------------------------|
B--------------------------------------------------------------------|
G---8po6--4---------------------------------------------------------|
D--------------------------------------------------------------------|
A--------------------------------------------------------------------|
E--------------------------------------------------------------------|


Bm                     A
   There's no point in crying
G               F#m
  My tears have run dry
G            A          B  (Bass line goes from A  B (B7  B)
 I hope that you're satisfied

Esus A    E6  E                  B
       If only you'd listened to me
      F#m            Bsus/E
Cos I still want you now
E                   B
 I don't want to be free
Esus A    E6  E                 B
       If only you listened to me
      F#m            Bsus/E
Cos I still feel the loss
E                   B
And it won't let me be
A                     B
oh no it wont let me be
A                     B
         wont let me be
A                     B
         wont let me be  (Repeat and Fade)
Tap to rate this tab
 
# A B C D E F G H I J K L M N O P Q R S T U V W X Y Z