Song name
# A B C D E F G H I J K L M N O P Q R S T U V W X Y Z

Mike And The Mechanics - Plain And Simple tab

use flanger or phaser

Intro:
--------------------------------------------------|
--------------------------------------------------|
--------------------------------------------------|
----10--8----5--8--5----8--10--10--8h10-----------|
----10--8----5--8--5----8--10--10--8h10-----------|
--------------------------------------------------|


Verse:
--------------------------------------------------|
--------------------------------------------------|
--------------------------------------------------|
----5--8--5----8--10--10--8h10--------------------|
----5--8--5----8--10--10--8h10--------------------|
--------------------------------------------------|
Tap to rate this tab
# A B C D E F G H I J K L M N O P Q R S T U V W X Y Z