Mike Dignam - Anyone Else tab

This is just the basic stucture of the song, mike adds other bits. He plays it Half-Step 
down, but i play it in standard. I used this video to get rhythm - 
http://www.youtube.com/watch?v=iKUFvAJYR8o

INTRO

e-----------------|-----------------|-----------------|--------------------|
B-----------------|-----------------|-----------------|--------------------|
G--1-1-1----4-----|-----------------|-----------------|--------------------|
D--2-2-2----4-----|----4h6---6--4---|-----------------|--------------------|
G--2-2-2----2-----|-4h6------6--4---|-----------------|--------------------|
E-- 0-0-0----2-----|----------4--2---|-----------------|-------------------|

VERSE

e-----------------|-----------------|-----------------|--------------------|
B-----------------|-----------------|-----------------|--------------------|
G--1-1-1----4-----|-4-4-------------|-----------------|--------------------|
D--2-2-2----4-----|-4-4------6--4---|-----------------|--------------------|
G--2-2-2----2-----|-2-2------6--4---|-----------------|--------------------|
E-- 0-0-0----2-----|-2-2------4--2---|-----------------|-------------------|

CHORUS

e-----------------|-----------------|----|
B-----------------|-----------------|----|
G-----------------|-----------------|----|
D--9-9-9---9------|--9--9---6---4---|----|
G--9-9-9---11-----|--11-11--6---4--------|  X2
E-- 7-7-7---0------|--0--0---4---2---|---|

e-----------------|--------------------|----|
B-----------------|--------------------|----|
G-----------------|--------------------|----|
D--9-9-9---9------|--9-----9---6---4---|----|
G--9-9-9---11-----|--11----11--6---4--------|  X2
E-- 7-7-7---0------|--0-----0---4---2---|---|

BRIDGE

e-----------------|-----------------|-----------------|--------------------|
B-----------------|-----------------|----0h2----------|--------------------|
G-----------------|-----------------|-1--1-----1-1----|--------------------|
D--6---6-6--6-6---|--4---4-4--4-4---|-2--2-----2-2----|--------------------|
G--6---6-6--6-6---|--4---4-4--4-4---|-2--2-----2-2----|--------------------|
E-- 4---4-4--4-4---|--2---2-2--2-2---|-0--0-----0-0----|-------------------|

e-----------------|-----------------|-----------------|----------------------|
B-----------------|-----------------|-----------------|----------------------|
G-----------------|-----------------|-1~--------------|----------------------|
D--6---6-6--6-6---|--4---4-4--4-4---|-2~--------------|--14~-----------------|
G--6---6-6--6-6---|--4---4-4--4-4---|-2~--------------|--14~-----------------|
E-- 4---4-4--4-4---|--2---2-2--2-2---|-0~--------------|--12~----------------|


OUTRO


e-----------------|-----------------|-----------------|--------------------|
B-----------------|-----------------|-----------------|--------------------|
G--1-1-1----4-----|-----------------|-----------------|--------------------|
D--2-2-2----4-----|----4h6--6--4           4h6p4------------|--------------|
G--2-2-2----2-----|-4h6------6--4  4h6|--------------|---------------------|
E-- 0-0-0----2-----|----------4--2---|-----------------|-------------------|

e-----------------|-----------------|-----------------|--------------------|
B-----------------|-----------------|-----------------|--------------------|
G--1-1-1----4-----|-----------------|-----------------|--------------------|
D--2-2-2----4-----|----4h6--6--4           4h6p4------------|--------------|
G--2-2-2----2-----|-4h6------6--4  4h6|--------------|---------------------|
E-- 0-0-0----2-----|----------4--2---|-----------------|-------------------|

End on F Sharp Minor




STRUCTURE

Intro
Verse
Chorus
Intro
Verse
Chorus
Bridge
Chorus (Play Softer)
Outro
Tap to rate this tab
 
# A B C D E F G H I J K L M N O P Q R S T U V W X Y Z