Song name
# A B C D E F G H I J K L M N O P Q R S T U V W X Y Z

Mike Falzone - Goldmine tab

Listen to the song to figure out when to tap down on the guitar.

The verse basically has two parts you do this one.

------------------------------------------|
-------3-------7---8----7----------3------|
-------0-------0---------------0---0------|
------------------------------------------|
------------------------------------------|
-3--3------7-------8----7----3------------|

And then this one and so on.

--------------------------------------------------|
-------3----1------1---3-----1-----3-------3------|
-------0--------0----------------------0----------|
--------------------------------------------------|
------------0----------0-----0--------------------|
-3--3-------------------------------3-------------|

Prechorus

----------------------------------------------------|
---------3---3------3---3------3---3----3----3------|
------0--0-------0--0-------0--0--------------------|
----------------------------------------------------|
--3----------2----------0----------0----0----0--2---|
----------------------------------------------------|
Tap to rate this tab
 
# A B C D E F G H I J K L M N O P Q R S T U V W X Y Z