Song name
# A B C D E F G H I J K L M N O P Q R S T U V W X Y Z

Mike Jones - Next To You tab

from Randy at RandyP1685@gmail.com

This is the entire song.  There are 4 (actually 3) chords that are looped throughout the 
song.  Here it is.  Let me get some feedback, this is my first tab but I believe it is 
correct.

e -----  -----  -----  -----|
B --6--  -----  -----  -----|
G --5--  --5--  --7--  --5--|
D --7--  --5--  --8--  --5--|
A --5--  --7--  --8--  --7--|
E -----  --5--  --6--  --5--|

These are the three chords and the order in which you play them.  However, you do not 
these chords but instead pick them.

e------------------------------------------|
B------6-----------------------------------|
G-----5--------5--------7-------5----------|
D----7--------5--------8-------5-----------|
A---5--------7--------8-------7------------|
E-----------5--------6-------5-------------|

Note: sometimes on the first chord after hitting the 6 on the B-string they hammer on 
pull of 8 like this...

e---------------|
B------6-6h8p6--|
G-----5---------|
D----7----------|
A---5-----------|
E---------------|
Tap to rate this tab
# A B C D E F G H I J K L M N O P Q R S T U V W X Y Z