Song name
# A B C D E F G H I J K L M N O P Q R S T U V W X Y Z

Mike Mains And The Branches - Noises tab

Intro (palm mute)
C#m G# A E
C#m G# A A
Verse(pm)/Chorus
C#m G# A E
C#m G# A A

e|--------------------------------|
b|--------------------------------|
g|--------------------------------|
a|-14141414-13131313-14-13-11-9---|
d|----------------------------11b-|
E|--------------------------------|

Solo
(14's 13's)
e|--------------------------------|
b|--------------------------------|
g|--------------------------------|
a|-14141414-13131313-14-13-11-9---|
d|----------------------------11b-|
E|--------------------------------|


(12's 11's) 
e|-12121212-11111111-12-11-9---------|
b|---------------------------12-9----|
g|-----------------------------------|
a|-----------------------------------|
d|-----------------------------------|
E|-----------------------------------|

e|-12121212-11111111-16b-------------|
b|-----------------------------------|
g|-----------------------------------|
a|-----------------------------------|
d|-----------------------------------|
E|-----------------------------------|
Bridge
C#m G# A E
C#m G# A E

By Steven
Tap to rate this tab
 
# A B C D E F G H I J K L M N O P Q R S T U V W X Y Z