Song name
# A B C D E F G H I J K L M N O P Q R S T U V W X Y Z

Mike Morasky - Medic tab

-------------------------------------------------------------------------------
                                                  MEDIC! - Team Fortress 2
-------------------------------------------------------------------------------
Tabbed by: Tim McLaughlin
Email: sereno_lopez@yahoo.com

Tuning: Standard Tuning

e|---------------------------------------------------------------------------|
B|---------------------------------------------------------------------------|
G|---------------------------------------------------------------------------|
D|------1-1-------1-1------1-1------------------1-1-------1-1-------1-1------|
A|-3-3-----------------3-3---------0-1-2--3-3------------------3-3-----------|
E|------------3-3-----------------3---------------------3-3------------------|

e|---------------------------------------------------------------------------|
B|---------------------------------------------------------------------------|
G|----------------1-1------1-1------1-1------------------1-1------1-1-----1-1|
D|---0-1-2--3-3----------------3-3------------0-1-2--3-3--------------3-3----|
A|-3-------------------3-3-------------------3----------------3-3------------|
E|---------------------------------------------------------------------------|

e|---------------------------------------------------------------------------|
B|---------------------------------------------------------------------------|
G|---------------------------------------------------------------------------|
D|--3-2-1-0-------1-1-----1-1------1-1----------------1-1----1-1-----1-1-----|
A|------------3-3--------------3-3---------0-1-2--3-3------------3-3---------|
E|---------------------3-3----------------3----------------3-3---------------|

e|-----------------------------------------------------4---------------------|
B|--------------7-6-5-4-----------4----6-------------------------------------|
G|-------------------------7-6-7---------------------------------------------|
D|---------------------------------------------------------------------------|
A|-3-2-1-0-------------------------------------------------------------------|
E|--------------4----------4-----------3h3h3h3h3h3h3h3-4h4h4h4h4h4h4h4-------|

e|3----------------|
B|-----------------|
G|-----------------|
D|-----------------| x2
A|-----------------|
E|3h3h3h3h2h2h1h0--|

************************************

| /   slide up
| \   slide down
| h   hammer-on
| p   pull-off
| ~   vibrato
| +   harmonic
| x   Mute note
| b   Bend
| pb  Pre-bend
| br  Bend release
| pbr Pre-bend release
| brb Bend release bend

************************************
Tap to rate this tab
 
# A B C D E F G H I J K L M N O P Q R S T U V W X Y Z