Song name
# A B C D E F G H I J K L M N O P Q R S T U V W X Y Z

Mike Oldfield - Out Of Sight tab

-------------------------------------------------------------------------------
			     Out Of Sight - Mike Oldfield
-------------------------------------------------------------------------------
Tabbed by: Ste Barker
Email: wornis@hotmail.com

Tuning: Standard EADGBe

Only been playing for abit under 2months so it isn't perfect but if you can figure out 
rest/corrections then please let me know.


e|-------------------------------------------------------------------|
B|-------------------------------------------------------------------|
G|-------------------------------------7-7\5-/7----------------------|
D|-0-0-3-7-10\9-5-7-----0-0-3-7-10\9-5-------------------------------|
A|-------------------------------------------------------------------|
E|-------------------------------------------------------------------|

e|-------------------------------------------------------------------|
B|-------------------------------------------------------------------|
G|-------------------------------------------------------------------|
D|-------------------------------------------------------------------|
A|-0-0-3-3-5-5-6-7-0-0-3-3-5-5-6-7-0-0-3-3-5-5-6-7-0-0-3-3-5-5-6-7---|
E|-------------------------------------------------------------------|

e|-------------------------------------------------------------------|
B|-------------------------------------------------------------------|
G|-------------------------------------------------------------------|
D|-0-0-3-3-5-5-6-7-0-0-3-3-5-5-6-7-----------------------------------|
A|---------------------------------0-0-3-3-5-5-6-7-10-10-9-9-8-8-7-7-|
E|-------------------------------------------------------------------|

e|-------------------------------------------------------------------|
B|---------------------------------------------7-9-------------------|
G|-9-9-9--7-7-7--------9-7---9-9-9--7-7-7--7-9-5-7-------------------|
D|-7-7-7--5-5-5--7-9-7-7-5---7-7-7--5-5-5--5-7-----------------------|
A|---------------5-7-5-----------------------------------------------|
E|-------------------------------------------------------------------|

| /  slide up
| \  slide down
| h  hammer-on
| p  pull-off
| ~  vibrato
| +  harmonic
| x  Mute note
===============================================================================
Tap to rate this tab
# A B C D E F G H I J K L M N O P Q R S T U V W X Y Z