Song name
# A B C D E F G H I J K L M N O P Q R S T U V W X Y Z

Mike Oldfield - Sailors Hornpipe tab

This is tabbed from the last two minutes of the origonal Tubular Bells - Part Two, but 
also a traditional song.

In Mike Oldfield's Tubular Bells version of The Sailor's Hornpipe, he speeds it up after 
repeat.

The tune is split between two parts, Let's call them One and Two.

Song Structure:

One | Two | Two | One | Two | Two | One | Two | Two | One | One | END

One
E||------------------12-------------|--12------9----------------|
B||---12--10--9--12------12--9--12--|------12-------10----10----|
G||*--------------------------------|---------------------------|
D||*--------------------------------|---------------------------|
A||---------------------------------|---------------------------|
E||---------------------------------|---------------------------|


--9----------9--14--9------9--|--14--9--11----------------|
-----12--11------------11-----|---------------12----12----|
------------------------------|---------------------------|
------------------------------|---------------------------|
------------------------------|---------------------------|
------------------------------|---------------------------|


--9--11--12--11--9------9------|------------------------------|
--------------------12-----12--|--10--9--10--9----------------|
-------------------------------|----------------11--9--9------|
-------------------------------|--------------------------13--|
-------------------------------|------------------------------|
-------------------------------|------------------------------|


------------------------------|-------------------------|
---------------------------9--|------10--9--------------|
-------------9------11--9-----|--11-----------9----9----|
--11--9--11-----13------------|-------------------------|
------------------------------|-------------------------|
------------------------------|-------------------------|


Two
--12--11--12--------------|-----------------12------12--16--|
--------------------------|--12--10--9--12------12----------|
----------------9----9----|---------------------------------|
--------------------------|---------------------------------|
--------------------------|---------------------------------|
--------------------------|---------------------------------|


--14--12--14----------------|-------------------------------|
----------------------------|-----------------12--11--12----|
----------------11----11----|--11--9------11----------------|
----------------------------|---------13--------------------|
----------------------------|-------------------------------|
----------------------------|-------------------------------|


--9--11--12--11--9------9------|------------------------------|
--------------------12-----12--|--10--9--10--9----------------|
-------------------------------|----------------11--9--9------|
-------------------------------|--------------------------13--|
-------------------------------|------------------------------|
-------------------------------|------------------------------|


------------------------------|-------------------------||
---------------------------9--|------10--9--------------||
-------------9------11--9-----|--11-----------9----9----||
--11--9--11-----13------------|-------------------------||
------------------------------|-------------------------||
------------------------------|-------------------------||
Tap to rate this tab
# A B C D E F G H I J K L M N O P Q R S T U V W X Y Z