Mike Oldfield - Punkadiddle tab

BAND - MIKE OLDFIELD
SONG - PUNKADIDDLE
FROM - PLATINUM

[-24-22-20-----------------------------------------]
[-----------24-22-20-------------------------------]
[--------------------23-21-19----------------------]
[------------------------------22-21-19------------]
[----------------------------------------22-21-19--]
[--------------------------------------------------]

[-24-22-20-------------------------------------------]
[-----------24-22-20---------------------------------]
[--------------------23-21-19------------------------]
[------------------------------22-21-19--------------]
[----------------------------------------22-21-19----]
[-------------------------------------------------22-]


[-------------------------------------------20-]
[----------------------------------20-22-24----]
[-------------------------19-21-23-------------]
[----------------19-21-22----------------------]
[-------19-21-22-------------------------------]
[-20-22----------------------------------------]


[----------------------------------------------]
[-------------------------------------20-22-24-]
[----------------------------19-21-23----------]
[-------------------19-21-22-------------------]
[----------19-21-22----------------------------]
[-19-21-22-------------------------------------]

(Section 1)
00:12
[----------h-----h---------17-15----|----------------------------------]
[----17--15-17-15-17-------------15-|----------h-----h--------17-15----]
[-14-----------------14-14----------|----16--14-16-14-16------------14-]
[-----------------------------------|-14-----------------14-14---------] X2
[-----------------------------------|----------------------------------]
[-----------------------------------|----------------------------------]

00:34
[-------------h-------12---------]
[-----12----10-12--------15----s-]
[-----------------9-9-------14-\-]
[--14----14----------------------]
[--------------------------------]
[--------------------------------]

00:46
[----------------------------------------------s-]
[-------------------------------------20-22-24-\-]
[----------------------------19-21-23------------]
[-------------------19-21-22---------------------]
[----------19-21-22------------------------------]
[-19-21-22---------------------------------------]


(Section 2)
01:49
       h          h          h          
[-16-14-16-16-|-14-16-16-|-14-16-16-|-14-16-|-17-16-14-]
[-------------|----------|----------|-------|----------]
[-------------|----------|----------|-------|----------]
[-------------|----------|----------|-------|----------]
[-------------|----------|----------|-------|----------]
[-------------|----------|----------|-------|----------]

       h          h          h          h             h  p  p  h
[-16-14-16-16-|-14-16-16-|-14-16-16-|-16-17-16-14--12--14-12-11-12-]Repeat
[-------------|----------|----------|------------------------------]Section 1
[-------------|----------|----------|------------------------------] X2
[-------------|----------|----------|------------------------------]
[-------------|----------|----------|------------------------------]
[-------------|----------|----------|------------------------------]

02:55
    h                 p      s      s     h                   p          h
[-14-16-14-------14-14-12--12\19-19-\-|-12-14-14---------14-14-12---12-12-14]
[----------12-12----------------------|---------12--12-12---------14--------]
[-------------------------------------|-------------------------------------]
[-------------------------------------|-------------------------------------]
[-------------------------------------|-------------------------------------]
[-------------------------------------|-------------------------------------]

    h                     p      s      s
[-11-12-14-----------14-14-12--12\19-19-\-]
[----------12--12-12----------------------]
[-----------------------------------------]
[-----------------------------------------]
[-----------------------------------------]
[-----------------------------------------]

    h
[-11-12-14--------------------14----------14----------]
[----------12--12-12--12-12------12-12-12----12-12-12-]
[-----------------------------------------------------]
[-----------------------------------------------------]
[-----------------------------------------------------]
[-----------------------------------------------------]


       h          h          h          h             h  p  p  h
[-16-14-16-16-|-14-16-16-|-14-16-16-|-16-17-16-14--12--14-12-11-12-]repeat
[-------------|----------|----------|------------------------------]this
[-------------|----------|----------|------------------------------]to
[-------------|----------|----------|------------------------------]fade
[-------------|----------|----------|------------------------------]
[-------------|----------|----------|------------------------------]

This is a Cool Tune.
Tap to rate this tab
 
# A B C D E F G H I J K L M N O P Q R S T U V W X Y Z