Song name
# A B C D E F G H I J K L M N O P Q R S T U V W X Y Z

Mike Oldfield - The Bell tab

The ending of "The Bell".
Use capo on the 2nd fret.
Let every note ring out.


e|4-------2-------|0---2-------2---|----2-----------|0-----------0---|
B|----0-------0---|--------4-------|--------0---4---|--------0-------|
G|----------------|----------------|----------------|----2-----------|
D|--------2-------|----------------|----------------|----------------|
A|----------------|----------------|0---------------|----------------|
E|0---------------|----------------|----------------|----------------|


e|4-------2-------|0---2-------2---|------------0---|------------0---|
B|----0-------0---|--------4-------|--------0-------|--------0-------|
G|----------------|----------------|----2-----------|----2-----------|
D|----------------|----------------|----------------|2---------------|
A|2---------------|----------------|0---------------|----------------|
E|----------------|----------------|----------------|----------------|


e|4-------2-------|0---2-------2---|----2-----------|0-----------0---|
B|----0-------0---|--------4-------|--------0---4---|--------0-------|
G|----------------|----------------|----------------|----2-----------|
D|--------2-------|----------------|----------------|----------------|
A|----------------|----------------|0---------------|----------------|
E|0---------------|----------------|----------------|----------------|


e|4-------2-------|0---2-------2---|0---------------|----------------|
B|----0-------0---|--------4-------|0---------------|----------------|
G|----------------|----------------|2---------------|----------------|
D|----------------|----------------|2---------------|----------------|
A|2---------------|----------------|0---------------|----------------|
E|----------------|----------------|----------------|----------------|
                                    (up-stroke)

e|--------0-------|----0-----------|0---------------|----------------|
B|----0-----------|0-----------0---|0---------------|----------------|
G|2-----------2---|--------2-------|1---------------|----------------|
D|----------------|----------------|2---------------|----------------|
A|----------------|----------------|2---------------|----------------|
E|----------------|----------------|0---------------|----------------|
  (Gradually slow down here)        (up-stroke)
Tap to rate this tab
# A B C D E F G H I J K L M N O P Q R S T U V W X Y Z