Song name
# A B C D E F G H I J K L M N O P Q R S T U V W X Y Z

Mike Oldfield - Tubular Bells tab

Tubular Bells - Mike Oldfield

E |------------------------------------------------------------------|
B |------------0--------------1-----3-----0--1-----------0-----------|
G |------2-----------0--2--------------------------2-----------0--2--|
D |---2-----2-----2--------2-----2-----2--------2-----2-----2--------|
A |------------------------------------------------------------------|
E |------------------------------------------------------------------|

E |------------------------------|
B |------1-----3-----0--1-----0--|
G |------------------------------|
D |---2-----2-----2--------2-----|
A |------------------------------|
E |------------------------------|
Tap to rate this tab
# A B C D E F G H I J K L M N O P Q R S T U V W X Y Z