Song name
# A B C D E F G H I J K L M N O P Q R S T U V W X Y Z

Mike Oldfield - Cuckoo Song tab

                                          Artist - Mike Oldfield
                                         ************************
                                           Song - Cuckoo Song 
                                          ********************
                                          Album - The Complete 
                                         **********************
                                          Tabbed By - Ayreon77
                                         **********************



Acoustic Chords are based around - A E D

--------------------
01:50                                                     
[---h------------|---p---------------]
[-14-15-17----17-|-17-15-14----------]
[----------------|----------16-14-14-]
[----------14----|-------------------]
[----------------|-------------------]
[----------------|-------------------]

01:53                 h        h
[---h---14------h---14-16-17-14-16----------|----------------------------]
[-15-17----17-15-17----------------17-14-14-|-17------------h---14-------]
[-------------------------------------------|----16----16-14-16----14-14-]
[-------------------------------------------|-------14-------------------]
[-------------------------------------------|----------------------------]
[-------------------------------------------|----------------------------]

02:00
[---------------h--p------------------]
[---h---12----12-14-12----------------]
[-13-14----------------14-13----------]
[----------14----------------14-------]
[-------------------------------------]
[-------------------------------12-12-]


[-------------------------|------h--p---------]
[------h--p---------------|-17-14-17-14-------]
[-16-14-16-14-------------|-------------14----]
[-------------18-14-------|-------------------]
[------fast---------------|----------------12-]
[-------------------12-12-|-------------------]

02:07                 h        h
[---h---14------h---14-16-17-14-16----------]
[-15-17----17-15-17----------------17-14-14-]
[-------------------------------------------]
[-------------------------------------------]
[-------------------------------------------]
[-------------------------------------------]


[----------------------------------]
[-17---------h--p--p---------------]
[----16----16-18-16-14-16-18-14-14-]
[-------14-------------------------]
[----------------------------------]
[----------------------------------]


02:13
[---------------h--p------------------]
[---h---12----12-14-12----------------]
[-13-14----------------14-13----------]
[----------14----------------14-------]
[-------------------------------------]
[-------------------------------12-12-]


[-----------------------|------h--p---------]
[------h--p-------------|-17-14-17-14-------]
[-16-14-16-14-----------|-------------14-14-]
[--------------18-14----|-------------------]
[-----fast--------------|-------------------]
[--------------------12-|-------------------]

02:20
[---p-------------------------------------------]
[-15-14----14---p-----h---------h--h------------]
[-------16----16-14-13-14-16--13-14-16-14-------]
[-----------------------------------------14----]
[--------------------------------------------12-]
[-----------------------------------------------]


-----------------
Break
-----------------

02:40                                                        
[----------------------------|---h--p--p------]
[--s------h--p--p------------|-15-17-15-14-15-]
[-7\-13-14-16-14-13-14-16----|----------------]
[-------------------------14-|----------------]
[----------------------------|----------------]
[----------------------------|----------------]

                s   h  p
[-------------17\-14-17-14----------h--p------|--------------------]
[-17--17--17---------------15-17--14-17-14-14-|-15--12----12-14----]
[---------------------------------------------|--------14-------14-]
[---------------------------------------------|--------------------]
[---------------------------------------------|--------------------]
[---------------------------------------------|--------------------]

                                            
[---------------------------h--p------]
[---h--h---17----------17-14-17-14----]
[-13-14-16----16----16-------------14-]
[----------------14-------------------]
[-------------------------------------]
[-------------------------------------]

          h           fade out
[----17-16-17-19-------------------------]
[-15-------------17-15-15-17-14-14-------]
[----------------------------------16----]
[-------------------------------------14-]
[----------------------------------------]
[----------------------------------------]



A classic Mike Oldfield Track. Enjoy............
Tap to rate this tab
 
# A B C D E F G H I J K L M N O P Q R S T U V W X Y Z