Song name
# A B C D E F G H I J K L M N O P Q R S T U V W X Y Z

Mike Oldfield - Conflict tab

-----------------------------------------------------------------------------
                                          Artist - Mike Oldfield
                                         ************************
                                             Song - Conflict 
                                            *****************
                                               Album - QE2 
                                              *************
                                          Tabbed By - Ayreon77
                                         **********************
-----------------------------------------------------------------------------
Tuning = Standard

 00:22
     s
e|-19\-|---h---12---p---------|-------------------------|
B|-----|-12-15----15-12-------|------h---12---p---------|
G|-----|----------------14-12-|----12-14----14-12-------|
D|-----|----------------------|-14----------------14-12-|
A|-----|----------------------|-------------------------|
E|-----|----------------------|-------------------------|


e|----------------------|-------------------------|
B|----------------------|-------------------------|
G|---h---12---p---------|-------------------------|
D|-12-14----14-12-------|------h---12---p---------|
A|----------------14-12-|-12-12-14----14-12-------|
E|----------------------|-------------------15-12-|

00:28
e|---h---12---p---------|-------------------------|
B|-12-15----15-12-------|------h---12---p---------|
G|----------------14-12-|----12-14----14-12-------|
D|----------------------|-14----------------14-12-|
A|----------------------|-------------------------|
E|----------------------|-------------------------|


e|----------------------|-------------------------|
B|----------------------|-------------------------|
G|---h---12---p---------|-------------------------|
D|-12-14----14-12-------|------h---12---p---------|
A|----------------14-12-|-12-12-14----14-12-------|
E|----------------------|-------------------15-12-|


------------------
00:34
e|----------------------|----------------------|----------------------|
B|----------------------|----------------------|------------h---16-18-|
G|----------------------|------------h---15-17-|---h---15-15-17-------|
D|------------h---15-17-|---h---15-15-17-------|-15-17----------------|
A|---h---15-15-17-------|-15-17----------------|----------------------|
E|-15-17----------------|----------------------|----------------------|

                         00:39
e|------------h---16-18-|----------------------|----------------------|
B|---h---16-16-18-------|----------------------|----------------------|
G|-15-17----------------|----------------------|------------h---17-19-|
D|----------------------|------------h---17-19-|---h---17-17-19-------|
A|----------------------|---h---17-17-19-------|-17-19----------------|
E|----------------------|-17-19----------------|----------------------|

                                              s
e|----------------------|------------h---18-20\-|
B|------------h---18-20-|---h---18-18-20--------|
G|---h---17-17-19-------|-17-19-----------------|
D|-17-19----------------|-----------------------|
A|----------------------|-----------------------|
E|----------------------|-----------------------|


------------------
00:45
e|---h---12---p---------|-------------------------|
B|-12-15----15-12-------|------h---12---p---------|
G|----------------14-12-|----12-14----14-12-------|
D|----------------------|-14----------------14-12-|
A|----------------------|-------------------------|
E|----------------------|-------------------------|


e|-------------------------|-------------------------|
B|-------------------------|-------------------------|
G|------h---12---p---------|-------------------------|
D|----12-14----14-12-------|------h---12---p---------|
A|-14----------------14-12-|-12-12-14----14-12-------|
E|-------------------------|-------------------15-12-|

00:50
e|-12---h---12---p---------|-------------------------|
B|----12-15----15-12-------|------h---12---p---------|
G|-------------------14-12-|----12-14----14-12-------|
D|-------------------------|-14----------------14-12-|
A|-------------------------|-------------------------|
E|-------------------------|-------------------------|


e|-------------------------|-------------------------|
B|-------------------------|-------------------------|
G|------h---12---p---------|-------------------------|
D|----12-14----14-12-------|------h---12---p---------|
A|-14----------------14-12-|-12-12-14----14-12-------|
E|-------------------------|-------------------15-12-|


------------------
00:56
e|----------------------|----------------------|----------------------|
B|----------------------|----------------------|------------h---16-18-|
G|----------------------|------------h---15-17-|---h---15-15-17-------|
D|------------h---15-17-|---h---15-15-17-------|-15-17----------------|
A|---h---15-15-17-------|-15-17----------------|----------------------|
E|-15-17----------------|----------------------|----------------------|

                         01:02
e|------------h---16-18-|----------------------|----------------------|
B|---h---16-16-18-------|----------------------|----------------------|
G|-15-17----------------|----------------------|------------h---17-19-|
D|----------------------|------------h---17-19-|---h---17-17-19-------|
A|----------------------|---h---17-17-19-------|-17-19----------------|
E|----------------------|-17-19----------------|----------------------|

                                              s
e|----------------------|------------h---18-20\-|
B|------------h---18-20-|---h---18-18-20--------|
G|---h---17-17-19-------|-17-19-----------------|
D|-17-19----------------|-----------------------|
A|----------------------|-----------------------|
E|----------------------|-----------------------|


------------------
01:07
Whistle
********
------------------

01:20
e|-----------------------------12-10-12-9-10-------|
B|----------p--p----h---10-12----------------12-12-|
G|---9-11-12-11-9-11-12----------------------------|
D|-9-----------------------------------------------|
A|-------------------------------------------------|
E|-------------------------------------------------|X2


------------------
01:27               h  p
e|----12----14----15-17-15-14-------|---------------h--p------------|
B|-12----12----12-------------15----|-------------10-12-10----------|
G|-------------------------------14-|-11----12-------------12-11----|
D|----------------------------------|----12----12----------------12-|
A|----------------------------------|-------------------------------|
E|----------------------------------|-------------------------------|


------------------
01:31
e|--------------------------12-10----10-14-12-12-|
B|--------p--p----h---10-12-------12-------------|
G|-9-11-12-11-9-11-12----------------------------|
D|-----------------------------------------------|
A|-----------------------------------------------|
E|-----------------------------------------------|


------------------
01:35   h  h     p  p                   h  h     p  p                 
e|----12-14-15-15-14-12-14-------|----14-15-17-17-15-14-15-------|
B|-12----------------------15----|-15----------------------17----|
G|----------------------------14-|---------------------------16--|
D|-------------------------------|-------------------------------|
A|-------------------------------|-------------------------------|
E|-------------------------------|-------------------------------|\
                                                                   \
        h  h     p  p                                              /X2
e|----15-17-19-19-17-15-17----------|----------------------------|/
B|-17----------------------19-15-19-|---------h--p---------------|
G|----------------------------------|-14-12-11-12-11-------------|
D|----------------------------------|----------------14-14-------|
A|----------------------------------|----------------------------|
E|----------------------------------|----------------------------|


------------------
01:50
Whistle
********
------------------
02:01
Keyboard
------------------
Not sure what this is but i,ve tried to write it for guitar
I know theres a guitar in there somewhere. 
02:23
e|-------------------------------------------------------|------------------|
B|-------------------------------------------------------|------------------|
G|---------------------------------------------------s---|------------------|
D|--s-------------h-----h-----7-5------h-p----------5\4--|--s-------------h-|
A|-5\7-7-7--h--5-5-7-7-5-7-7------7-5-5-7-5----s--------5|-5\7-7-7--h--5-5-7|
E|---------5-7------------------------------7-5\3-0------|---------5-7------|


e|----------------------------|---------------------------------------------|
B|----------------------------|---------------------------------------------|
G|----------s-----p-----------|---------------------------------------------|
D|--h----7-5\4---5-4----h---s-|---------------------------------------------|
A|-5-7-7-------5-----5-5-7-7\-|-2-2-2-2-2-2-2-2-2-2-2-2-2-4-4-4-5-5-5-7-7-7-|
E|----------------------------|-0-0-0-0-0-0-0-0-0-0-0-0-0-2-2-2-3-3-3-5-5-5-|


------------------
02:35
e|---h---12---p---------|-------------------------|
B|-12-15----15-12-------|------h---12---p---------|
G|----------------14-12-|----12-14----14-12-------|
D|----------------------|-14----------------14-12-|
A|----------------------|-------------------------|
E|----------------------|-------------------------|


e|-------------------------|-------------------------|
B|-------------------------|-------------------------|
G|------h---12---p---------|-------------------------|
D|----12-14----14-12-------|------h---12---p---------|
A|-14----------------14-12-|-12-12-14----14-12-------|
E|-------------------------|-------------------15-12-|

02:41
e|-12---h---12---p---------|-------------------------|
B|----12-15----15-12-------|------h---12---p---------|
G|-------------------14-12-|----12-14----14-12-------|
D|-------------------------|-14----------------14-12-|
A|-------------------------|-------------------------|
E|-------------------------|-------------------------|


e|-------------------------|-------------------------|
B|-------------------------|-------------------------|
G|------h---12---p---------|-------------------------|
D|----12-14----14-12-------|------h---12---p---------|
A|-14----------------14-12-|-12-12-14----14-12-------|
E|-------------------------|-------------------15-12-|


A nice Instrumental

ENJOY...........
Tap to rate this tab
# A B C D E F G H I J K L M N O P Q R S T U V W X Y Z