Song name
# A B C D E F G H I J K L M N O P Q R S T U V W X Y Z

Mike Oldfield - Celt tab

-----------------------------------------------------------------------------
                                          Artist - Mike Oldfield 
                                         ************************
                                              Song - Celt 
                                             *************
                                              Album - QE2 
                                             *************
                                          Tabbed By - Ayreon77
                                         **********************
-----------------------------------------------------------------------------
Tuning = Standard


WORDS
******
As far wrengo delta
Cento elto rebishow
Novish rama esto rama
Cento rebishlow

Now bella rema bella
Suma zappa retisgo

(repeat chorus)

Bella rema bella
Suma zappa retisgo



 01:08
e|-17-------15----|-17-------15----|-17-------|
B|----15----------|----15----------|----15----|
G|-------14----14-|-------14----14-|-------14-|
D|----------------|----------------|----------|
A|----------------|----------------|----------|
E|----------------|----------------|----------|

     s                   h                   
e|-17\19-------17----|-17-19----17-------|-19-------|
B|-------19----------|-------------17----|-------19-|
G|----------16----16-|-------16-------16-|----16----|
D|-------------------|-------------------|----------|
A|-------------------|-------------------|----------|
E|-------------------|-------------------|----------|

     s                   h           p  p                   p  p
e|-19\17-------15----|-15-17----15-17-15-14----17----15-|-17-15-14-------|
B|-------15----------|----------------------------------|----------15----|
G|----------14----14-|-------14-------------14----14----|-------------14-|
D|-------------------|----------------------------------|----------------|
A|-------------------|----------------------------------|----------------|
E|-------------------|----------------------------------|----------------|


e|-----------------------|
B|---h--h------h--h------|
G|-11-12-14--11-12-14-14-|
D|-----------------------|
A|-----------------------|
E|-----------------------|



01:20
e|-17-------15----|-17-------15----|-17-------|
B|----15----------|----15----------|----15----|
G|-------14----14-|-------14----14-|-------14-|
D|----------------|----------------|----------|
A|----------------|----------------|----------|
E|----------------|----------------|----------|

     s                   h                   
e|-17\19-------17----|-17-19----17-------|-19-------|
B|-------19----------|-------------17----|-------19-|
G|----------16----16-|-------16-------16-|----16----|
D|-------------------|-------------------|----------|
A|-------------------|-------------------|----------|
E|-------------------|-------------------|----------|

     s                   h           p  p                   p  p
e|-19\17-------15----|-15-17----15-17-15-14----17----15-|-17-15-14-------|
B|-------15----------|----------------------------------|----------15-15-|
G|----------14----14-|-------14-------------14----14----|----------------|
D|-------------------|----------------------------------|----------------|
A|-------------------|----------------------------------|----------------|
E|-------------------|----------------------------------|----------------|


e|-----------------|
B|-------h--h------|
G|-14--11-12-14-14-|
D|-----------------|
A|-----------------|
E|-----------------|

    
 
01:31   s                                          01:34      
e|----17\19---h--------------s---------------------17---h------------17--|
B|-19-------17-19------s---19\17----------------------17-22---p----------|
G|----------------16-16\18--------s-----------h-------------18-16--------|
D|------------------------------16\14---h---14-16-----------------19-----|
A|------------------------------------12-14------------------------------|
E|-----------------------------------------------------------------------|
      hold
      bend
    b   |    h  p          p                     s         s
e|-19--19--19-21-19----|-17-16-----------19----19\21-21--21\22-22----|
B|------------------22-|-------17------------------------------------|
G|---------------------|----------16--16----16---------18---------19-|
D|---------------------|---------------------------------------------|
A|---------------------|---------------------------------------------|
E|---------------------|---------------------------------------------|

     s        s        s        s        s                              
e|-22\21----21\19----19\17----17\15----15\14------|
B|--------------------------------------------s---|
G|------21-------19-------18-------16-------16\14-|
D|------------------------------------------------|
A|------------------------------------------------|
E|------------------------------------------------|


 
02:40                                       s
e|-17-------15-|-17-------15-|-17-------|-17\19-------17----|-19-------17----|
B|----15-------|----15-------|----15----|-------19----------|----19----------|
G|-------14----|-------14----|-------14-|----------16----16-|-------16----16-|
D|-------------|-------------|----------|-------------------|----------------|
A|-------------|-------------|----------|-------------------|----------------|
E|-------------|-------------|----------|-------------------|----------------|

                   s                            p
e|-19-------17-|-19\17-------15-|-17-------17-15-14--------------------|
B|----19-------|-------15-------|----15-------------15----------h--h---|Repeat 
G|-------16----|----------14----|-------14-------------14---11---12-14-|from
D|-------------|----------------|--------------------------------------|02:40
A|-------------|----------------|--------------------------------------|and
E|-------------|----------------|--------------------------------------|fade out.



A Cool Instrumental


ENJOY.........
Tap to rate this tab
# A B C D E F G H I J K L M N O P Q R S T U V W X Y Z