Song name
# A B C D E F G H I J K L M N O P Q R S T U V W X Y Z

Mike Oldfield - Red Dawn tab

Hey guys, Check out     http://tubular.net/tabs
For more tabs on Mike here :)


Part 1
e:---------------------------3---2---2---0---------------------------|
B:-------------------0---------0---0---------1-----------0---0---1---|
G:-0-0---------------------0---------------------2---2-----2---------|
D:-----4-2-0-------------2-------------2---2---2---0---1-------1---1-|
A:-----------3-2-0-3---2-------------0---------------2---------------|
E:-------------------0-----------------------------------------------|

e:-----------------0-----0-5---3---2-------0---2---3---0---0-------|
B:-0-------0-----0-----1---------------0-----------------------0---|
G:-------0-----0-------------5---0---2---2---2---0---0---0-----0---|
D:-----2-----2-------2---------------------------------------2---0-|
A:---2-------------0---------------2---------------3---------------|
E:-0---------------------------------------------------------------|


  Part 2                Repeat Part 1
e:-0-------2-----------|-------------|-0-------2-----2-----0-5---3---|
B:-----0-------0-0h(1)-|-------------|-----0-------0---1-------------|
G:---2---2---2---------|-------------|---2---2---2-------------5---0-|
D:---------------------|-------------|-------------------2-----------|
A:-2-------------------|-------------|-2---------------0-------------|
E:---------------------|-------------|-------------------------------|

e:-2-------0---2---------2/7--------4-------4-------3-------3-------|
B:-----0-----------3-----------10-------5-------5-------4-------4---|
G:---2---2---2---0-----4--------------6-----------6---5---5-------5-|
D:-0-----------------4-------9----0-7-----7---7-----6---------6-----|
A:-----------------2------------------------------------------------|
E:------------------------------------------------------------------|

e:--------------------------------------------------------------------|
B:--------------------------------------------------------------------|
G:-------------7-7-7-7-7-7-7-7-7-7------------------------------------|
D:---------6-6-----6-6-6-6-6-6-6-6-r(7-x-5-x-7-x-2-x-9-x-7-x-9-x-4-x)-|
A:-----5-5---------5-5-5-5-5-5-5-5-r(7-x-5-x-7-x-2-x-9-x-7-x-9-x-4-x)-|
E:-4-4-------------4-4-4-4-4-4-4-4-r(5-x-3-x-5-x-0-x-7-x-5-x-7-x-2-x)-|
   x2#############                   x4############# x4#############
Tap to rate this tab
# A B C D E F G H I J K L M N O P Q R S T U V W X Y Z