Song name
# A B C D E F G H I J K L M N O P Q R S T U V W X Y Z

Mike Oldfield - Serpant Dream tab

Hey again... This is Serpent Dream..
A bit like the guitar pro tab but personally this is easier, yet still not perfect 
Please VOTE VOTE VOTE!! COMMENT COMMENT COMMENT!!!
:D:D    Thanks


Flamenco Part (0:00 - 2:06) :

e:---|---------------|---------|------------------------------------------|
B:---|---------------|---------|------------------5h6p5-5-6-8-6-(6)h8p6p5-|
G:---|-------4h5p4-4-|---------|-5-7-5h7p5p4-4-5-7-----7------------------|
D:-2-|----6h7-----7--|-6h7p6-6-|------------7-----------------------------|
A:---|-7h8-----------|------8--|------------------------------------------|
E:---|---------------|---------|------------------------------------------|
     [               [1.2.     [3.                                        ]

e:-----------------------------------------------------------------------|
B:-----------------------------------------------------------------------|
G:-------4--5-(5)h7p5p4---4-5-4-5---4-5-7/9---4h5-4-5---4-5-7/9-9\-4h5-4-|
D:----6h7--------------7-7---------7---------7---------7----------7------|
A:-7h8---------------------------------------------7---------------------|
E:-----------------------------------------------------------------------|


e:-----------------------------------------------------|--------|----|
B:-----------------------------------------5h6-5-6h8-5-|--------|--5-|
G:-4h5-4------------4h5-4-5h7-5h7p5p4-4-5h7---7--------|--------|--4-|
D:----7-6h7-6---6h7----7-------------7-----------------|----6h7-|--6-|
A:---------8-7h8---------------------------------------|-7h8----|--7-|
E:-----------------------------------------------------|--------|-0--|
  [x2##############                                    [1.      [2.  ]


  x2...                                                     ...
e:-------------------------------------------------------------|
B:-5h6-5----------------5h6p5-5-6h8-6h8p6p5-5h6-5h6p5-5--------|
G:----7-5h7-4h5-4/(5)h7------7-------------7---------7-5h7-4---|
D:-------------7-----------------------------------------------|
A:-----------------------------------------------------------7-|
E:-------------------------------------------------------------|
   x2##################

e:-----------------------------------------------------------------------|
B:-----------------------------------------------5h6-5-6h8-6h8p6p5-------|
G:-4h5p4-4--------------4h5p4-4-5h7-5h7p5p4-4-5h7---7--------------------|
D:------7-6h7p6-6---6h7------7-------------7-------------------------6h7-|
A:-------------8-7h8----------------------------------------------7h8----|
E:-----------------------------------------------------------------------|
   x2##################


   ...
e:|---|
B:|---|
G:|---|
D:|---|
A:|---|
E:|---|


e:------------------------------------------------------------------------|
B:------------------------------------------------------------------------|
G:-5-(5)h7p5p4-4-5-4-4-5(5)h7p5p4-4-5-4-5-4-5-7/9-4h5-4-5--4-5-7/9-9\-4h54|
D:------------7-7--------------------7-7---------7---------7---7---7------|
A:--------------------------------------------------7---------------------|
E:------------------------------------------------------------------------|
Tap to rate this tab
# A B C D E F G H I J K L M N O P Q R S T U V W X Y Z