Song name
# A B C D E F G H I J K L M N O P Q R S T U V W X Y Z

Mike Oldfield - Flying Start tab

Flying Start by Mike Oldfield
Tabbed by: Jett_Moonwing
E-Mail: jett_moonwing2001@yahoo.com

e|------------------------------------------------------------------|
B|-----------2-3-2----0------------------2-3-2----0-----------------|
G|--0h2-2--2-------0----2-------0-2-2--2-------0----2---------------|
D|------------------------2---------------------------2-------------|
A|------------------------------------------------------------------|
E|------------------------------------------------------------------|


e|------------------------------------------------------------------|
B|-----------2-3-2----0------------------2-3-2--0-2--2--------------|
G|--0h2-2--2-------0----2-------0-2-2--2----------------------------|
D|------------------------2----------------------------(2)----------|
A|------------------------------------------------------------------|
E|------------------------------------------------------------------|
Tap to rate this tab
# A B C D E F G H I J K L M N O P Q R S T U V W X Y Z