Song name
# A B C D E F G H I J K L M N O P Q R S T U V W X Y Z

Mike Oldfield - Tr3s Lunas tab

Help us improve GuitareTab! Take a short survey!
#----------------------------------PLEASE NOTE--------------------------------#
#This file is the author's own work and represents their interpretation of the#
#song. You may only use this file for private study, scholarship, or research.#
#-----------------------------------------------------------------------------#

-----------------------------------------------------------------
SONG Title:     "Tr3s Lunas"    
ARTIST/GROUP:   Mike Oldfield
TRANSCRIBED By: David Chaves(Costa Rica)
                (csdosage@hotmail.com)
                (http://csdosage.hi5.com)
-----------------------------------------------------------------

Tablature Notation:

h    = hammer-on
p    = pull-off
/    = slide up
\    = slide down
< >  = natural harmonic
ar   = artificial harmonic
~    = vibrato
pm--|= palm muting
b    = bending
r    = release

Questions, comments, complaints at csdosage@hotmail.com

Acoustic Guitar

(00:15)
e|-3--------3------------------3-------|-------|-3-----------|
B|---4-3------4---4-6--6-3-------4-3---|-----3-|---4-3h4p3---|
G|-------5------5----------5-3-------5-|---3---|-----------5-|
D|-------------------------------------|-3-----|-------------|
A|-------------------------------------|-------|-------------|
E|-------------------------------------|-------|-------------|

e|-------|-3-------------|-------------|-3-------|
B|-----6-|---4-----4-4-6-|-6-3---------|---4-3---|
G|---5---|-----5-7-------|-----5h7p5-3-|-------5-|
D|-3-----|---------------|-------------|---------|
A|-------|---------------|-------------|---------|
E|-------|---------------|-------------|---------|

Electric Guitar I

(00:45)
e|------------------------------------------------------------|
B|-18b20~~--16p13--16-18-13--18b20~~--16----------------------|
G|---------------------------------------17----------15-------|
D|------------------------------------------17p15h17----17p15-|
A|------------------------------------------------------------|
E|------------------------------------------------------------|

e|---------------------------------|--------------------------|
B|-18b20~~--16-16-18-18b20~~-16----|--------------------------|
G|------------------------------17-|--18-20-20b22-22r20-20p18-|
D|---------------------------------|--------------------------|
A|---------------------------------|--------------------------|
E|---------------------------------|--------------------------|

Acoustic / Electric

(01:00)
e|-3--------3-----------------------------|-3b4r3-----------|
B|---4-3------4---4/6-------------8p4\3---|-------4-3/4\3---|
G|-------5------5------10-7-------------5-|---------------5-|
D|--------------------------10-8----------|-----------------|
A|----------------------------------------|-----------------|
E|----------------------------------------|-----------------|

e|--------------|----------------|---------------|
B|-6b7--4---4/6-|----------------|-6b8r6b8-4-3---|
G|--------5-----|-8b9--7-5h7p5-3-|-------------5-|
D|--------------|----------------|---------------|
A|--------------|----------------|---------------|
E|--------------|----------------|---------------|

Electric Guitar II

(01:30)
e|------------------------------------------------------------|
B|-18b20~~--16p13--16-18-13--18b20~~--16----------------------|
G|---------------------------------------17----------15-------|
D|------------------------------------------17p15h17----17p15-|
A|------------------------------------------------------------|
E|------------------------------------------------------------|

e|---------------------------19-21-|--------|
B|-18b20~~--16-16-18-18b20~~-------|--------|
G|---------------------------------|-24p23~-|
D|---------------------------------|--------|
A|---------------------------------|--------|
E|---------------------------------|--------|

Electric Guitar III

(02:30)
e|------------------------------------|--------------------------|
B|-18b20~~--16p13-16-18-18b20~~-16----|--------------------------|
G|---------------------------------17-|--18-20-20b22-22r20-20p18-|
D|------------------------------------|--------------------------|
A|------------------------------------|--------------------------|
E|------------------------------------|--------------------------|

e|------------------------------------|--------------------------|
B|-18b20~~--16p13-16-18-18b20~~-16----|--------------------------|
G|---------------------------------17-|--18-20-20b22-22r20-20p18-|
D|------------------------------------|--------------------------|
A|------------------------------------|--------------------------|
E|------------------------------------|--------------------------|

Acoustic / Electric

(02:45)
e|-3--------3-----------------------------|-3b4r3-----------|
B|---4-3------4---4/6-------------8p4\3---|-------4-3/4\3---|
G|-------5------5------10-7-------------5-|---------------5-|
D|--------------------------10-8----------|-----------------|
A|----------------------------------------|-----------------|
E|----------------------------------------|-----------------|

e|--------------|----------------|---------------|
B|-6b7--4---4/6-|----------------|-6b8r6b8-4-3---|
G|--------5-----|-8b9--7-5h7p5-3-|-------------5-|
D|--------------|----------------|---------------|
A|--------------|----------------|---------------|
E|--------------|----------------|---------------|

Electric Guitar 

(03:15)
Guitar 1
e|--------------------------------------------------------------|
B|-20--16-18--15-18-16--15-16-15-----20--16-18--15-18-16--15-16-|
G|-------------------------------17-----------------------------|
D|--------------------------------------------------------------|
A|--------------------------------------------------------------|
E|--------------------------------------------------------------|

  Guitar 1
e|------------------------------------|---------------------------------|
B|-20--16-18--15-18-16--15-16-15------|-20--16-18--15-18-16--15-16------|
G|-------------------------------17---|---------------------------------|
D|------------------------------------|---------------------------------|
A|------------------------------------|---------------------------------|
E|------------------------------------|---------------------------------|
 |                                                                      |
 |Guitar 2                                                              |
e|------------------------------------|----23b25-23-21-23-21------------|
B|-24--21-24--24b26-26-21----------21-|-24-------------------23-24b26~~-|
G|------------------------23-24-23----|---------------------------------|
D|------------------------------------|---------------------------------|
A|------------------------------------|---------------------------------|
E|------------------------------------|---------------------------------|
Related for Tr3s Lunas tab