Song name
# A B C D E F G H I J K L M N O P Q R S T U V W X Y Z

Mike Oldfield - Out Of Mind tab

Help us improve GuitareTab! Take a short survey!
Pretty tricky but its great for trying to make your plucking in your right hand work 
chords and single notes.. I would say its for advanced players but if you work at it anyone 
play it.

-------|-----------------------|-----------------|-----------------|
-5-7-8-|-10s12------12s10---10-|---8-----8s7-----|-7p5---5---3---3s|
-------|-0---------------------|-----6-------7---|-----------4---4s|
-------|-------12-9-------7-0--|-------7-------7-|-----7-----5---5s|
-------|-----------------------|---0-------------|-----0-----------|
-------|-----------------------|-----------------|-----------------|


           (almost exactly the same)  *
-----------------|-----------------------|-----------------|-----------------|
--s5---5---5-7-8-|-10s12------12s10---10-|---8-----8s7-----|-7p5---5---3---3s|
--s6---6---------|-0---------------------|-----6-------7---|-----------4---4s|
--s7---7---------|-------12-9-------7-0--|-------7-------7-|-----7-----5---5s|
-----------------|-----------------------|---0-------------|-------0---------|
-----------------|-----------------------|-----------------|-----------------|


                       *   *
-----------------|-----------------|-------------------|---------3---2h3p2p|
--s5---5---5-5-5-|-5-3-3---3---0-0-|-h2p0--------5-5-5-|-5-----3---3-------|
--s6---6---------|---4-4---4---0-0-|-----2---2---------|-----4-------------|
--s7---7---------|---5-5---5---0-0-|-----2---2---------|---5---------------|
-----------------|-----------------|-----0-------------|-------------------|
-----------------|-----------------|-------------------|-------------------|


                       *   *                                 *   *
p0---------------|-----------------|-------------------|-------------------||
-----3s5---5-5-5-|-5-3-3---3---0-0-|-h2p0--------5-5-5-|-5-3-3---3---0-----||
---2-------------|---4-4---4---0-0-|-----2---2---------|---4-4---4---0-2---||
-----------------|---5-5---5---0-0-|-----2---2---------|---5-5---5---0-2---||
-----------------|-----------------|-----0-------------|---------------0---||
-----------------|-----------------|-------------------|-------------------||

www.tubular.net

Great tabs there for Mike Oldfield, in a strange format there though. Just "open with.. 
microsoft word" is what I do. Enjoy
Related for Out Of Mind tab