Song name
# A B C D E F G H I J K L M N O P Q R S T U V W X Y Z

Mike Oldfield - Top Of The Morning tab

                    The Top of The Morning


                                                          Mike Oldfield
Track 1

     E  E  E  E  E  E  E   E     E  E  E  H        E
E||-----------0--1--3--5---7--|--8--L--7--8--------L--|
B||--3-----3---------------L--|-----------------------|
G||-----2------------------L--|-----9--------------L--|
D||------------------------L--|--7--------------------|
A||---------------------------|-----------------------|
C||---------------------------|-----------------------|


  E  E  E  E  E  E   E   E      E   E   E   H         E
--------3--5--7--8--10--12--|--13---L--12--13---------L--|
-----3-------------------L--|------10-----------------L--|
----------------------------|----------------------------|
--5-------------------------|--12------------------------|
----------------------------|----------------------------|
----------------------------|----------------------------|


   E   E   E  E   E  E   E   E     E  E  E  H        E
-----------------------------7--|--8--L--7--8--------L--|
---------------------8--10------|-----------------------|
--------------9--10-------------|-----9--------------L--|
----------12-----------------L--|--7--------------------|
------12----------L-------------|-----------------------|
--14-------L--------------------|-----------------------|


  E  E  E  E  E  E   E   E      E   E   E   H         E
--------3--5--7--8--10--12--|--13---L--12--13---------L--|
-----3-------------------L--|-------------------------L--|
----------------------------|------14-----------------L--|
--5--------L----------------|--12---------------------L--|
----------------------------|-------------------------L--|
----------------------------|----------------------------|


     E   E   T  T  S  E   E   E   E   E      Q     E   Q     E   Q
|--------------10--L-12--13--15--17--18--|--20----18--20----18--20----|
|-----------10------------L------10------|---L------------------------|
|*-----------------------10-------L------|--10-------------------L----|
|*------12----------------------------L--|----------------------------|
|---12--------------------------------L--|----------------------------|
|----------------------------------------|----------------------------|


   E   E   E   E   E   E   E   E      E   E   E   Q     E   Q
----------------------15--17--18--|--17---L--15--17----15--17-----||
--------------17--18--------------|-------------------------------||
----------------------------------|------14-----------------L----*||
----------19-------------------L--|--15---------------------L----*||
------17---------------L----------|-------------------------------||
--21-----------L------------------|-------------------------------||


   E   E   E   E   E   E   E   E      E   E   E   Q     E   Q
----------------------15--17--18--|--17---L--15--17----15--17----|
--------------17--18--------------|------------------------------|
----------------------------------|------------------------------|
----------19-------------------L--|------------------------------|
------17-------L--17-----------L--|------------------------------|
--21-----------L------------------|--21---------------------L----|


   E   E   E   E   E   E   E   E      E   E   E   E   E   E   E   E
------15--17------15--17------15--|--17------15--17------15--17------|
--17----------17----------17------|------17----------17----------17--|
----------------------------------|----------------------------------|
----------------------------------|----------------------------------|
----------------------------------|----------------------------------|
----------------------------------|----------------------------------|


   E   E   E   E   H             E  E  E  E  E  E  E  E
--15--17------15--17--------||---------------------------|
----------17----------------||------------------------0--|
----------------------------||*-----------------0--2-----|
----------------------------||*--------0--2--3-----------|
----------------------------||------0--L-----3-----------|
----------------------------||---2-----L-----9-----------|


  E  E  E  E  E  E  E  E     E  E  E  E  E  E  E  E
--------------------------|-----------------------0--|
--1--L--0--1--L--------1--|--------------0--1--3-----|
-----------------0--2-----|--------0--2--------------|
--------------------------|-----0--------------------|
--L--0-----L--3--------L--|--------------------------|
--L-----------------------|--7-----------------------|


  Q    E  E  E  E  E  E        E  E  T T S E  E  E  E  E
--1----0--1--L-----0--1---||---------------0--1--3--5--6--|
--1-------L-----1---------||-----------3-L----------------|
-------------2-----L-----*||*--------2---L----------------|
-------------------------*||*-----0-----------------------|
--------------------------||---1-----------L--1--------L--|
--------------------------||------------------------------|


  Q    E  E  E  E  Q       E  E  T T S E  E  E  E  E
--8----6--8--L--6--8----|--------------0--1--3--5--6--|
------------------------|----------3-L----------------|
------------------------|--------2---L----------------|
-------------3-----L----|-----0-----------------------|
------------------------|--1-----------L--1--------L--|
--5-------L-------------|-----------------------------|


  Q    E  E  E  E  Q          E  E  E  E  E  E  E  E
--5----3--5--L--3--5-----||---------------------------|
-------------------------||------------------------0--|
------------------------*||*-----------------0--2-----|
--0-------L--0-----L----*||*--------0--2--3-----------|
-------------------------||------0--L-----3-----------|
-------------------------||---2-----L-----9-----------|


  E  E  E  E  E  E  E  E     E  E  E  E  E  E  E  E
--------------------------|-----------------------0--|
--1--L--0--1--L--------1--|--------------0--1--3-----|
-----------------0--2-----|--------0--2--------------|
--------------------------|-----0--------------------|
--L--0-----L--3--------L--|--------------------------|
--L-----------------------|--7-----------------------|


  Q    E  E  E  E  E  E        E  E  T T S E  E  E  E  E
--1----0--1--L-----0--1---||---------------0--1--3--5--6--|
--1-------L-----1---------||-----------3-L----------------|
-------------2-----L-----*||*--------2---L----------------|
-------------------------*||*-----0-----------------------|
--------------------------||---1-----------L--1--------L--|
--------------------------||------------------------------|


  Q    E  E  E  E  Q       E  E  T T S E  E  E  E  E
--8----6--8--L--6--8----|--------------0--1--3--5--6--|
------------------------|----------3-L----------------|
------------------------|--------2---L----------------|
-------------3-----L----|-----0-----------------------|
------------------------|--1-----------L--1--------L--|
--5-------L-------------|-----------------------------|


  Q    E  E  E  E  Q          E  E  E  E  E  E  E  E
--5----3--5--L--3--5-----||---------------------------|
-------------------------||------------------------0--|
------------------------*||*-----------------0--2-----|
--0-------L--0-----L----*||*--------0--2--3-----------|
-------------------------||------0--L-----3-----------|
-------------------------||---2-----L-----9-----------|


  E  E  E  E  E  E  E  E     E  E  E  E  E  E  E  E
--------------------------|-----------------------0--|
--1--L--0--1--L--------1--|--------------0--1--3-----|
-----------------0--2-----|--------0--2--------------|
--------------------------|-----0--------------------|
--L--0-----L--3--------L--|--------------------------|
--L-----------------------|--7-----------------------|


  Q    E  E  E  E  E  E        E  E  T T S E  E  E  E  E
--1----0--1--L-----0--1---||---------------0--1--3--5--6--|
--1-------L-----1---------||-----------3-L----------------|
-------------2-----L-----*||*--------2---L----------------|
-------------------------*||*-----0-----------------------|
--------------------------||---1-----------L--1--------L--|
--------------------------||------------------------------|


  Q    E  E  E  E  Q       E  E  T T S E  E  E  E  E
--8----6--8--L--6--8----|--------------0--1--3--5--6--|
------------------------|----------3-L----------------|
------------------------|--------2---L----------------|
-------------3-----L----|-----0-----------------------|
------------------------|--1-----------L--1--------L--|
--5-------L-------------|-----------------------------|


  Q    E  E  E  E  Q          Q.     Q.     Q       Q.     Q.     Q
--5----3--5--L--3--5-----||---5------3------1----|--1------3------5----|
-------------------------||---6------6------3----|--3------6------6----|
------------------------*||*---------------------|---------------------|
--0-------L--0-----L----*||*---------------------|---------------------|
-------------------------||----------------------|---------------------|
-------------------------||----------------------|---------------------|


  Q.     Q.     Q       W                 4x  Q    E   H         E
--1------3------5----|--3-----------------||--3--------3---------L--|
--3------6------6----|--6-----------------||--6----3--12---------L--|
---------------------|-------------------*||------------------------|
---------------------|-------------------*||------------------------|
---------------------|--------------------||------------------------|
---------------------|--------------------||------------------------|


    E  E  E  E  E  E  E  E     E  E  E  E  E  E  E  E
|---------------------------|--------------------------|
|------------------------0--|--1--L--0--1--L--------1--|
|*-----------------0--2-----|-----------------0--2-----|
|*--------0--2--3-----------|--------------------------|
|------0--L-----3-----------|--L--0-----L--3--------L--|
|---2-----L-----9-----------|--L-----------------------|


  E  E  E  E  E  E  E  E     Q    E  E  E  E  E  E
-----------------------0--|--1----0--1--L-----0--1---||
--------------0--1--3-----|--1-------L-----1---------||
--------0--2--------------|-------------2-----L-----*||
-----0--------------------|-------------------------*||
--------------------------|--------------------------||
--7-----------------------|--------------------------||


   E  E  T T S E  E  E  E  E     Q    E  E  E  E  Q
---------------0--1--3--5--6--|--8----6--8--L--6--8----|
-----------3-L----------------|------------------------|
*--------2---L----------------|------------------------|
*-----0-----------------------|-------------3-----L----|
---1-----------L--1--------L--|------------------------|
------------------------------|--5-------L-------------|


  E  E  T T S E  E  E  E  E     Q    E  E  E  E  Q          Q.     Q.     Q
--------------0--1--3--5--6--|--5----3--5--L--3--5-----||---5------3------1----|
----------3-L----------------|-------------------------||---6------6------3----|
--------2---L----------------|------------------------*||*---------------------|
-----0-----------------------|--0-------L--0-----L----*||*---------------------|
--1-----------L--1--------L--|-------------------------||----------------------|
-----------------------------|-------------------------||----------------------|


  Q.     Q.     Q       Q.     Q.     Q       W                 4x
--1------3------5----|--1------3------5----|--3-----------------||
--3------6------6----|--3------6------6----|--6-----------------||
---------------------|---------------------|-------------------*||
---------------------|---------------------|-------------------*||
---------------------|---------------------|--------------------||
---------------------|---------------------|--------------------||


  Q    E   H         E       E  E  E  E  E  E  E  E
--3--------3---------L--||---------------------------|
--6----3--12---------L--||------------------------0--|
------------------------||*-----------------0--2-----|
------------------------||*--------0--2--3-----------|
------------------------||------0--L-----3-----------|
------------------------||---2-----L-----9-----------|


  E  E  E  E  E  E  E  E     E  E  E  E  E  E  E  E
--------------------------|-----------------------0--|
--1--L--0--1--L--------1--|--------------0--1--3-----|
-----------------0--2-----|--------0--2--------------|
--------------------------|-----0--------------------|
--L--0-----L--3--------L--|--------------------------|
--L-----------------------|--7-----------------------|


  Q    E  E  E  E  E  E        E  E  T T S E  E  E  E  E
--1----0--1--L-----0--1---||---------------0--1--3--5--6--|
--1-------L-----1---------||-----------3-L----------------|
-------------2-----L-----*||*--------2---L----------------|
-------------------------*||*-----0-----------------------|
--------------------------||---1-----------L--1--------L--|
--------------------------||------------------------------|


  Q    E  E  E  E  Q       E  E  T T S E  E  E  E  E
--8----6--8--L--6--8----|--------------0--1--3--5--6--|
------------------------|----------3-L----------------|
------------------------|--------2---L----------------|
-------------3-----L----|-----0-----------------------|
------------------------|--1-----------L--1--------L--|
--5-------L-------------|-----------------------------|


  Q    E  E  E  E  Q          E  E  E  E  E  E  E  E
--5----3--5--L--3--5-----||---------------------------|
-------------------------||------------------------0--|
------------------------*||*-----------------0--2-----|
--0-------L--0-----L----*||*--------0--2--3-----------|
-------------------------||------0--L-----3-----------|
-------------------------||---2-----L-----9-----------|


  E  E  E  E  E  E  E  E     E  E  E  E  E  E  E  E
--------------------------|-----------------------0--|
--1--L--0--1--L--------1--|--------------0--1--3-----|
-----------------0--2-----|--------0--2--------------|
--------------------------|-----0--------------------|
--L--0-----L--3--------L--|--------------------------|
--L-----------------------|--7-----------------------|


  Q    E  E  E  E  E  E        E  E  T T S E  E  E  E  E
--1----0--1--L-----0--1---||---------------0--1--3--5--6--|
--1-------L-----1---------||-----------3-L----------------|
-------------2-----L-----*||*--------2---L----------------|
-------------------------*||*-----0-----------------------|
--------------------------||---1-----------L--1--------L--|
--------------------------||------------------------------|


  Q    E  E  E  E  Q       E  E  T T S E  E  E  E  E
--8----6--8--L--6--8----|--------------0--1--3--5--6--|
------------------------|----------3-L----------------|
------------------------|--------2---L----------------|
-------------3-----L----|-----0-----------------------|
------------------------|--1-----------L--1--------L--|
--5-------L-------------|-----------------------------|


  Q    E  E  E  E  Q         E  E  E  E  E  E  E  E
--5----3--5--L--3--5-----||--------------------------|
-------------------------||-----------------------0--|
------------------------*||-----------------0--2-----|
--0-------L--0-----L----*||--------0--2--3-----------|
-------------------------||-----0--L-----------------|
-------------------------||--2-----L-----------------|


  E  E  E  E  E  E  E  E     E  E  E  E  E  E  E  E     Q    E  H        E
--------------------------|-----------------------0--|--1----0--1--------L--||
--1--L--0--1--L--------1--|--------------0--1--3-----|----------------------||
-----------------0--2-----|--------0--2--------------|----------------------||
--------------------------|-----0--------------------|----------------------||
--L-----------------------|--------------------------|----------------------||
--L-----------------------|--7-----------------------|----------------------||


Duration Legend
---------------
W - whole
H - half
Q - quarter
E - 8th
S - 16th
T - 32nd
X - 64th
. - note dotted
|-n-|  - n-tuplets


Tablature Legend
----------------
L - tied note
x - dead note
g - grace note
(n) - ghost note
> - accentuded note
NH - natural harmonic
AH - artificial harmonic
TH - tapped harmonic
SH - semi harmonic
PH - pitch harmonic
h - hammer on
p - pull off
b - bend
br - bendRelease
pb - preBend
pbr - preBendRelease
brb - bendReleaseBend
\n/ - tremolo bar dip
\n - tremolo bar dive
-/n - tremolo bar Release up
/n\ - tremolo bar inverted dip
/n - tremolo bar return
-\n - tremolo bar Release down
S - shift slide
s - legato slide
/ -  slide into from below or out of upwards
\ -  slide into from above or out of downwards
~ - vibrato
W - wide vibrato
tr - trill
TP - tremolo picking
T - tapping
S - slap
P - pop
< - fade in
^ - brush up
v - brush down


Quite a difficult piece, quite fast aswell. Just listen to this on TB II and you will
get it.. very hard though. Some of it will be literally impossible, because of the length
your hand to the fretboard, but I did this with a program that said it was right.. Just 
and play the note that goes with the melody and just not playing the bass notes. Enjoy
Tap to rate this tab
# A B C D E F G H I J K L M N O P Q R S T U V W X Y Z