Song name
# A B C D E F G H I J K L M N O P Q R S T U V W X Y Z

Mike Patton - The Snow Angel tab

-------------------------------------------------------------------------------
                                The Snow Angel - Mike Patton
                        from The Place Beyond the Pines
-------------------------------------------------------------------------------
Tabbed by: Austin811

Tuning: Drop D

Guitar 1
e|--------------------------------------------------------------------|
B|-----10-------10-------10----------10-------12--------10------------|
G|--------11-------9--11----11----------11-------11--11----11---------|
D|-(12)------12----------------11----------12-----------------11------|
A|--------------------------------12-----------------------------12---|
D|-(0)----------------------------------------------------------------|

Guitar 2
e|--------------------------------------------------------------------|
B|--------------------------------------------------------------------|
G|--------------------------------------------------------------------|
D|-(0~)--------------(4~)--------(0~)---------------(4~)--------(0~)--|
A|--------------------------------------------------------------------|
D|--0~----------------4~----------0~-----------------4~----------0----|


Guitar 1
e|-----------------------------|
B|-10-------12--------10-------|
G|----11-------11--11----11----|     repeat from beginning
D|-------12-----------------11-|
A|-----------------------------|
D|-----------------------------|

Guitar 2

e|-----------------------------|
B|-----------------------------|
G|-----------------------------|     repeat from beginning
D|----------------(4~)---------|
A|-----------------------------|
D|-----------------4~----------|



I'm pretty certain that's it. You can play the 0 and 4 on the A string as well for 
Guitar 2. The two chords are D and F#


Let me know in the comments if I missed anything, but it's a fairly easy song, 
since it just goes on repeating. 
Listen to the song for the timing (http://www.youtube.com/watch?v=E81XhCy63Pc) 
incredible movie by the way! =)
Tap to rate this tab
# A B C D E F G H I J K L M N O P Q R S T U V W X Y Z