Song name
# A B C D E F G H I J K L M N O P Q R S T U V W X Y Z

Mike Pinto - One More Time tab

-------------------------------------------------------------------------------
			     One More Time - Mike Pinto
-------------------------------------------------------------------------------
Tabbed by: Dak R.
Email:

Tuning:EADGBe
  E              U  U  U  U     B              U  U  U  U
e|-7-7-7-7-7-x-x-7--7--7--7--x---7-7-7-7-7-x-x-7--7--7--7--------|
B|-9-9-9-9-9-x-x-10-10-10-10-x---7-7-7-7-7-x-x-10-10-10-10-------|
G|-9-9-9-9-9-x-x-9--9--9--9--x---8-8-8-8-8-x-x-8--8--8--8--------|
D|-9-9-9-9-9-x-x-------------x---9-9-9-9-9-x-x-------------------|
A|-7-7-7-7-7-x-x-------------x---9-9-9-9-9-x-x-------------------|
E|-7-7-7-7-7-x-x-------------x---7-7-7-7-7-x-x-------------------|

  D             U U U U      A             U U U U
e|-5-5-5-5-5-x-x-5-5-5-5-x---5-5-5-5-5-x-x-5-5-5-5----|
B|-7-7-7-7-7-x-x-8-8-8-8-x---5-5-5-5-5-x-x-8-8-8-8----|
G|-7-7-7-7-7-x-x-7-7-7-7-x---6-6-6-6-6-x-x-6-6-6-6----|
D|-7-7-7-7-7-x-x---------x---7-7-7-7-7-x-x------------|
A|-5-5-5-5-5-x-x---------x---7-7-7-7-7-x-x------------|
E|-5-5-5-5-5-x-x---------x---5-5-5-5-5-x-x------------|

Figure out the strumming pattern, its not that difficult. Pretty sweet song.. That's all 
have so far I'm working on the rest of it, Have Fun


| U  Up strum
| /  slide up
| \  slide down
| h  hammer-on
| p  pull-off
| ~  vibrato
| +  harmonic
| x  Mute note
===============================================================================
Tap to rate this tab
# A B C D E F G H I J K L M N O P Q R S T U V W X Y Z