Mike Pinto - Shades Of Brown tab

-----------------------------------------------------------------------------
			     Shades of Brown - Mike Pinto
-----------------------------------------------------------------------------
Tabbed by: Peter

The other tabs of this were pretty far off.  Here's what I got.

-Note the change back to the Bm on the second pluck off the F#.
-The last little riff of the bridge might be off.

Verse
       Bm      Bm/A    G      F# Bm/F#
e|------------------------------------------------------------------|
B|-----3-3-----3-3-----3-3-----2-3----------------------------------|
G|-----4-4-----4-4-----4-4-----3-4----------------------------------|
D|-----4-4-----4-4-----5-5-----4-4----------------------------------|
A|--2-------0-------------------------------------------------------|
E|------------------3-------2---------------------------------------|

Pre-chorus
It's all for nothin', de doo de doo

       D      A       C       G
e|------------------------------------------------------------------|
B|-----7-7----5-5-----5-5-----3-3-----------------------------------|
G|-----7-7----6-6-----5-5-----4-4-----------------------------------|
D|-----7-7----7-7-----5-5-----5-5-----------------------------------|
A|--5--------------3------------------------------------------------|
E|----------5--------------3----------------------------------------|

Chorus
Same speed, just had to make room in between.
       Bm    
e|-----------------------------------------------------------------|
B|-----3---3----3---3-----3---3----3---------3---3-----------------|
G|-----4---4----4---4-----4---4----4---------4---4-----------------|
D|-----4---4----4---4-----4---4----4---------4---4-----------------|
A|--2-------------0----2-------------0--5--2-----------------------|
E|-----------2-------------------2---------------------------------|


Bridge
       Em (x4)  Bm (x3) on the last one, pluck an Em
e|------------------------------------------------|
B|-----8-8------7-7----------------7-8------------|
G|-----9-9------7-7----------------7-9------------|
D|-----9-9------9-9----------------9-9------------|
A|--7---------------------------------------------|
E|-----------7-----------------7------------------|

Bridge pt. 2
This riff could be very wrong.  The bass notes are right.
      F#      F#      Em    D     C#m    F#
e|-----------------------------------------------------------|
B|----2-2-----2-2-----8-----7-----5------2-------------------|
G|----3-3-----3-3-----9-----7-----6------3-------------------|
D|----4-4-----4-4-----9-----7-----6------4-------------------|
A|-----------------7-----5-----4-----------------------------|
E|-2-------2--------------------------2----------------------|

The order goes something like this:

Verse
Pre-chorus
Chorus

Verse
Chorus

Bridge
Bridge pt. 2
Chorus

Verse
Pre-chorus
End on a nice Bm
Tap to rate this tab
 
# A B C D E F G H I J K L M N O P Q R S T U V W X Y Z