Song name
# A B C D E F G H I J K L M N O P Q R S T U V W X Y Z

Mike Posner - Cooler Than Me tab

go on youtube and listen to the song first

i am positive this is right 


Intro/chorus: Riff
e|---------6/3--4-3-----------|
b|---------6/3--4-3-----------|
g|----------------------------|
D|------5---------------------|
A|----5-----------------------|
E|--3-------------------------|



verse 
e|----------------------------|
b|----------------------------|
g|----------------------------|
D|----------------------------|
A|---6---5--------------------|
E|---------3-3-3-3------------|x3



verse 
e|----------------------------|
b|----------------------------|
g|----------------------------|
D|----------------------------|
A|---6---5--------------------|
E|---------3------------------|



e|----------------------------|
b|----------------------------|
g|----------------------------|
D|----------------------------|
A|---6---5--------------------|
E|---------3-3-3-3------------|x3


 
e|----------------6/3--4-3-----------|
b|----------------6/3--4-3-----------|
g|-----------------------------------|
D|-------------5---------------------|
A|-6--5------5-----------------------|
E|---------3-------------------------|



then there is a rapping part just play the verse 

after the rap there are some chords 

they are 

C Am and E

count 1234 then strum

like c1234 Am1234 Em1234 Am1234

    C     Am       Em    Am
E---0-----0--------0-----0---------------|
B---1-----1--------0-----1---------------|
G---0-----2--------0-----2---------------|
D---2-----2--------2-----2---------------|
A---3-----0--------2-----0---------------|
E---0-----x--------0-----x---------------|





Tap to rate this tab
# A B C D E F G H I J K L M N O P Q R S T U V W X Y Z