Song name
# A B C D E F G H I J K L M N O P Q R S T U V W X Y Z

Mike Posner - Cooler Than Me tab

-------------------------------------------------------------------------------
			                          Cooler Than Me - Mike Posner
-------------------------------------------------------------------------------
Tabbed by: mjgj96
Email: mjgj96@aim.com

Tuning: Drop D - DADGBe (lowest to highest)

************************************

 /   slide up
 \   slide down
 h   hammer-on
 p   pull-off
 ~   vibrato
 r   let ring
 +   harmonic
 x   Mute note
 b   Bend
 pb  Pre-bend
 br  Bend release
 pbr Pre-bend release
 brb Bend release bend

************************************

 Intro

   G5          D#  Dm
e|-------6--\3-6-6-5-5-|
B|-------6--\3-8-8-6-6-|
G|---------------------| (x8)
D|-----5---------------|
A|----5--------6---5---|
E|-5-------------------|
   r     r

 Verse

e|-----------------------------------------------------------|
B|-----------------------------------------------------------|
G|-----------------------------------------------------------|
D|---------5-5-5-5---------5-5-5-5---------5-5-5-5---------5-|
A|-6---5-----------6---5-----------6---5-----------6---5-----|
E|---------5-5-5-5---------5-5-5-5---------5-5-5-5---------5-|
   r   r           r   r           r   r         

e|--------------------------------------------------------|
B|--------------------------------------------------------|
G|--------------------------------------------------------|
D|---------5-5-5-5---------5-5-5-5---------5-5-5-5--------|
A|-6---5-----------6---5-----------6---5-----------6---5--|
E|---------5-5-5-5---------5-5-5-5---------5-5-5-5--------|
   r   r           r   r           r   r         
 
 Chorus

   G5          D#  Dm
e|-------6--\3-6-6-5-5-|
B|-------6--\3-8-8-6-6-|
G|---------------------| (x8)
D|-----5---------------|
A|----5--------6---5---|
E|-5-------------------|
   r     r

 Verse

e|-----------------------------------------------------------|
B|-----------------------------------------------------------|
G|-----------------------------------------------------------|
D|---------5-5-5-5---------5-5-5-5---------5-5-5-5---------5-|
A|-6---5-----------6---5-----------6---5-----------6---5-----|
E|---------5-5-5-5---------5-5-5-5---------5-5-5-5---------5-|
   r   r           r   r           r   r         

e|--------------------------------------------------------|
B|--------------------------------------------------------|
G|--------------------------------------------------------|
D|---------5-5-5-5---------5-5-5-5---------5-5-5-5--------|
A|-6---5-----------6---5-----------6---5-----------6---5--|
E|---------5-5-5-5---------5-5-5-5---------5-5-5-5--------|
   r   r           r   r           r   r         

 Chorus

   G5          D#  Dm
e|-------6--\3-6-6-5-5-|
B|-------6--\3-8-8-6-6-|
G|---------------------| (x8)
D|-----5---------------|
A|----5--------6---5---|
E|-5-------------------|
   r     r
 Rap

e|-------------------------------------------------------------------|
B|-------------------------------------------------------------------|
G|-------------------------------------------------------------------|
D|---------5-5-5-5---------5-5--------------5-5-5-5----------5-5-----|
A|-6-6-5-5---------6-6--------------6-6-5-5---------6-6-5-5----------|
E|---------5-5-5-5---------5-5--------------5-5-5-5----------5-5-----|

e|-----------------------------------------------------------|
B|-----------------------------------------------------------|
G|-----------------------------------------------------------|
D|---------5-5-5-5---------5-5-5-5----------5-5-5-5----------|
A|-6-6-5-5---------6-6-5-5----------6-6 5-5----------6-6-5-5-|
E|---------5-5-5-5---------5-5-5-5----------5-5-5-5----------|

 Bridge

   G5
e|-------6--\3-|
B|-------6--\3-|
G|-------------|
D|-----5-------|
A|----5--------|
E|-5-----------|

   D#   Dm   D#   F
e|-6----5----6----8--|
B|-8----6----8----10-|
G|-8----7----8----10-| (x2)
D|-8----7----8----10-|
A|-6----5----6----8--|
E|-------------------|
   r    r    r    r

 End Chorus

   D#  Dm  G5          D#  Dm
e|-6-6-5-5-------6--\3-6-6-5-5-|
B|-8-8-6-6-------6--\3-8-8-6-6-|
G|-----------------------------|
D|-------------5---------------|
A|-6---5------5--------6---5---|
E|---------5-------------------|
           r     r

   G5          D#  Dm
e|-------6--\3-6-6-5-5-|
B|-------6--\3-8-8-6-6-|
G|---------------------| (x6)
D|-----5---------------|
A|----5--------6---5---|
E|-5-------------------|
   r     r
Tap to rate this tab
 
# A B C D E F G H I J K L M N O P Q R S T U V W X Y Z