Song name
# A B C D E F G H I J K L M N O P Q R S T U V W X Y Z

Mike Posner - Bow Chicka Wow Wow tab

-------------------------------------------------------------------------------
			     Bow Chicka Wow Wow - Mike Posner
-------------------------------------------------------------------------------
Tabbed by: Deegan12
Email:

Tuning: Standard

Main Guitar Riff:
e|-----------------------------------------------12--------------------------|
B|-10b12r10---8-----------8b9r8-----------/12-15----10-8-----/10--8--/12--8--|
G|--------------11-9--------------11-9-------------------9-------------------|
D|-------------------12------------------------------------------------------|
A|---------------------------------------------------------------------------|
E|---------------------------------------------------------------------------|

~2:07
e|---------------------------------------------------------------------------|
B|-10b12r10--8-----10b12r10--8-------10b12r10--8-----10b12r10--8------15p12--|
G|--------------9---------------9~----------------9---------------9----------|
D|---------------------------------------------------------------------------|
A|---------------------------------------------------------------------------|
E|---------------------------------------------------------------------------|


Tap to rate this tab
 
# A B C D E F G H I J K L M N O P Q R S T U V W X Y Z