Mike Posner - Bow Chicka Wow Wow tab

Tabbed by: Bobby B.

.......
b=bend
/=slide
.......


e/----------------------------------------------12--------------------------|
B/-b10-8----------------b8-6-------------/12 15----10-8---------------------|
G/-------11-9----------------11-9-----------------------9--------8/10/8-----|
D/------------12------------------------------------------------------------|
A/--------------------------------------------------------------------------|
E/--------------------------------------------------------------------------|


e/--------------------------------------------------------------------------|
B/-8/12/8-------------------------------------------------------------------|
G/--------------------------------------------------------------------------|
D/--------------------------------------------------------------------------|
A/--------------------------------------------------------------------------|
E/--------------------------------------------------------------------------|
Tap to rate this tab
 
# A B C D E F G H I J K L M N O P Q R S T U V W X Y Z