Mike Posner - Bow Chicka Wow Wow tab

By C-Lace
email: clace0332@aim.com

When I set the mood right, Imma make it sound like...
e|---------------------------------------------------------12-----------|
B|-------------------------------------------------/12-15---------------|
G|-14b16r14p12--11-------------12b13r12-11---9-----------------14--12\9-|
D|------------------14---12---------------------------------------------|
A|----------------------------------------------------------------------|
E|----------------------------------------------------------------------|


e|-------------------|
B|-----------/12--8--|
G|-12b13r12----------|
D|-------------------|
A|-------------------|
E|-------------------|

Lil Wayne: (Whe he says ) "Cigarettes" start this:
e|--------------------------------|
B|--------------------------------|
G|-------12h14--14b16~~~~~~-12h14-|
D|-12h14--------------------------|
A|--------------------------------|
E|--------------------------------|


e|-------------|-------------------|
B|-------------|-------------------|
G|-------12h14-|-14b16r14p12-------|x4
D|-12h14-------|-------------14----|
A|-------------|-------------------|
E|-------------|-------------------|

after the fourth
e|--------------------------12----------------|
B|--15-12----------------------15-12----------|
G|--------14b16~~~~---14b16----------14b16r14-|
D|--------------------------------------------|
A|--------------------------------------------|
E|--------------------------------------------|


e|-------------------|
B|-------------------|
G|-14b16r14p12-------|x3
D|-------------14----|
A|-------------------|
E|-------------------|

e|-------------------12h15-|
B|-------------12h15-------|
G|-14b16r14p12-------------|
D|-------------------------|
A|-------------------------|
E|-------------------------|

Thats what I got so far
Tap to rate this tab
 
# A B C D E F G H I J K L M N O P Q R S T U V W X Y Z