Song name
# A B C D E F G H I J K L M N O P Q R S T U V W X Y Z

Mike Posner - Cooler Then Me Acoustic tab

This tab is based on the (much better) acoustic version of "Cooler Than Me", which can
be found at http://www.youtube.com/watch?v=UTm2YaYszqg, or by typing Mike Posner - 
Cooler Than Me (Acoustic Performance UK). This is also my first tab, so take it easy...

Points to note:

1) In the 8th bar, the chord I have selected is roughly F5, which is a power chord. I
recommend not playing a full chord and just pluck the strings as the tab indicates.

2) Although the Intro, Verses and Chorus are roughly the same, I have gone the whole 9
yards and put them all down, as some of them have slight differences.

3) / = slide
   h = hammer
   p = pull off
   x = mute

I'm fairly confident that this is what the guitarist plays... I've tried to make it as 
accurate as possible in terms of timing, but if there are any issues, then refer to the video...
Please enjoy and feel free to comment...


Intro

  EbMaj7  Dm7      Gm7                    EbMaj7  Dm7      Gm7
e|6---6---5---5---| -- - ---10---- - ----|6---6---5---5---| -- - --10----- - ----|
b|8---8---6---6---| -- - ---11---- - ----|8---8---6---6---| -- - --11----- - ----|
g|7---7---5---5---| -- -10--10----10 ----|7---7---5---5---| -- -10-10-----10 ----|
D|8---8---7---7---| --12 ---12---- -12---|8---8---7---7---| --12 --12----- -12---|
A|6---6---5---5--8/10- - ---10---- - ----|6---6---5---5--8/10- - --10----- - ----|
E|x---x---x---x---| -- - --- x---- - ----|x---x---x---x---| -- - -- x----- - ----|

  EbMaj7  Dm7      Gm7                    EbMaj7           F5
e|6---6---5---5---| -- - ---10---- - ----|6---------------|-- - -8-----------|
b|8---8---6---6---| -- - ---11---- - ----|6h8-------------|-- - -------------|
g|7---7---5---5---| -- -10--10----10 ----|7---------------|-- -10------------|
D|8---8---7---7---| --12 ---12---- -12---|8---------------|--10 -------------|
A|6---6---5---5--8/10- - ---10---- - ----|6--------------6/8- - -------------|
E|x---x---x---x---| -- - --- x---- - ----|x---------------|-- - - -----------|

Verse 1

  EbMaj7  Dm7      Gm7                    EbMaj7  Dm7      Gm7
e|6---6---5---5---| -- - ---10---- - ----|6---6---5---5---| -- - --10----- - ----|
b|8---8---6---6---| -- - ---11---- - ----|8---8---6---6---| -- - --11----- - ----|
g|7---7---5---5---| -- -10--10----10 ----|7---7---5---5---| -- -10-10-----10 ----|
D|8---8---7---7---| --12 ---12---- -12---|8---8---7---7---| --12 --12----- -12---|
A|6---6---5---5--8/10- - ---10---- - ----|6---6---5---5--8/10- - --10----- - ----|
E|x---x---x---x---| -- - --- x---- - ----|x---x---x---x---| -- - -- x----- - ----|

  EbMaj7  Dm7      Gm7                    EbMaj7           F5
e|6---6---5---5---| -- - ---10---- - ----|6-------6-------|-- - -8-----------|
b|8---8---6---6---| -- - ---11---- - ----|6h8-----8-------|-- - -------------|
g|7---7---5---5---| -- -10--10----10 ----|7---------------|-- -10------------|
D|8---8---7---7---| --12 ---12---- -12---|8---------------|--10 -------------|
A|6---6---5---5--8/10- - ---10---- - ----|6--------------6/8- - -------------|
E|x---x---x---x---| -- - --- x---- - ----|x---------------|-- - - -----------|

Verse 2

  EbMaj7  Dm7      Gm7                    EbMaj7  Dm7      Gm7
e|6---6---5---5---| -- - ---10---- - ----|6---6---5---5---| -- - --10----- - ----|
b|8---8---6---6---| -- - ---11---- - ----|8---8---6---6---| -- - --11----- - ----|
g|7---7---5---5---| -- -10--10----10 ----|7---7---5---5---| -- -10-10-----10 ----|
D|8---8---7---7---| --12 ---12---- -12---|8---8---7---7---| --12 --12----- -12---|
A|6---6---5---5--8/10- - ---10---- - ----|6---6---5---5--8/10- - --10----- - ----|
E|x---x---x---x---| -- - --- x---- - ----|x---x---x---x---| -- - -- x----- - ----|

  EbMaj7  Dm7      Gm7                    EbMaj7           F5
e|6---6---5---5---| -- - ---10---- - ----|6-------6-------|-- - -8-----------|
b|8---8---6---6---| -- - ---11---- - ----|6h8-----8-------|-- - -------------|
g|7---7---5---5---| -- -10--10----10 ----|7---------------|-- -10------------|
D|8---8---7---7---| --12 ---12---- -12---|8---------------|--10 -------------|
A|6---6---5---5--8/10- - ---10---- - ----|6--------------6/8- - -------------|
E|x---x---x---x---| -- - --- x---- - ----|x---------------|-- - - -----------|

Verse 3

  EbMaj7  Dm7      Gm7                    EbMaj7  Dm7      Gm7
e|6---6---5---5---| -- - ---10---- - ----|6---6---5---5---| -- - --10----- - ----|
b|8---8---6---6---| -- - ---11---- - ----|8---8---6---6---| -- - --11----- - ----|
g|7---7---5---5---| -- -10--10----10 ----|7---7---5---5---| -- -10-10-----10 ----|
D|8---8---7---7---| --12 ---12---- -12---|8---8---7---7---| --12 --12----- -12---|
A|6---6---5---5--8/10- - ---10---- - ----|6---6---5---5--8/10- - --10----- - ----|
E|x---x---x---x---| -- - --- x---- - ----|x---x---x---x---| -- - -- x----- - ----|

  EbMaj7  Dm7      Gm7                    EbMaj7           F5
e|6---6---5---5---| -- - ---10---- - ----|6---6---6---6---|-- - -8-----------|
b|8---8---6---6---| -- - ---11---- - ----|8---8---8---8---|-- - -------------|
g|7---7---5---5---| -- -10--10----10 ----|7---7---7---7---|-- -10------------|
D|8---8---7---7---| --12 ---12---- -12---|8---8---8---8---|--10 -------------|
A|6---6---5---5--8/10- - ---10---- - ----|6---6---6---6--6/8- - -------------|
E|x---x---x---x---| -- - --- x---- - ----|x---x---x---x---|-- - - -----------|


Verse 4

  EbMaj7  Dm7      Gm7                    EbMaj7  Dm7      Gm7
e|6---6---5---5---| -- - ---10---- - ----|6---6---5---5---| -- - --10----- - ----|
b|8---8---6---6---| -- - ---11---- - ----|8---8---6---6---| -- - --11----- - ----|
g|7---7---5---5---| -- -10--10----10 ----|7---7---5---5---| -- -10-10-----10 ----|
D|8---8---7---7---| --12 ---12---- -12---|8---8---7---7---| --12 --12----- -12---|
A|6---6---5---5--8/10- - ---10---- - ----|6---6---5---5--8/10- - --10----- - ----|
E|x---x---x---x---| -- - --- x---- - ----|x---x---x---x---| -- - -- x----- - ----|

  EbMaj7  Dm7      Gm7                    EbMaj7           F5
e|6---6---5---5---| -- - ---10---- - ----|6-------6-------|-- - -8-----------|
b|8---8---6---6---| -- - ---11---- - ----|6h8-----8-------|-- - -------------|
g|7---7---5---5---| -- -10--10----10 ----|7---------------|-- -10------------|
D|8---8---7---7---| --12 ---12---- -12---|8---------------|--10 -------------|
A|6---6---5---5--8/10- - ---10---- - ----|6--------------6/8- - -------------|
E|x---x---x---x---| -- - --- x---- - ----|x---------------|-- - - -----------|

Bridge

  Cm7              Dm7              EbMaj7           EbMaj7
e|3------3--------|5------5--------|6------6--------|6------6--------|
b|3h4----4--------|5h6----6--------|6h8----8--------|8------8--------|
g|3------3--------|5------5--------|7------7--------|7------7--------|
D|3h5----5--------|5h7----7--------|8------8--------|8------8--------|
A|3------3--------|5------5--------|6------6--------|6------6--------|
E|x------x--------|x------x--------|x------x--------|x------x--------|

 Cm7              Dm7              EbMaj7           F5
e|3------3--------|5------5--------|6------6--------|-- - -8-----------|
b|3h4----4--------|5h6----6--------|6h8----8--------|-- - -------------|
g|3------3--------|5------5--------|7---------------|-- -10------------|
D|3h5----5--------|5h7----7--------|8---------------|--10 -------------|
A|3------3--------|5------5--------|6--------------6/8- - -------------|
E|x------x--------|x------x--------|x---------------|-- - - -----------|

Verse 5

  EbMaj7  Dm7      Gm7                    EbMaj7  Dm7      Gm7
e|6---6---5---5---| -- - ---10---- - ----|6---6---5---5---| -- - --10----- - ----|
b|8---8---6---6---| -- - ---11---- - ----|8---8---6---6---| -- - --11----- - ----|
g|7---7---5---5---| -- -10--10----10 ----|7---7---5---5---| -- -10-10-----10 ----|
D|8---8---7---7---| --12 ---12---- -12---|8---8---7---7---| --12 --12----- -12---|
A|6---6---5---5--8/10- - ---10---- - ----|6---6---5---5--8/10- - --10----- - ----|
E|x---x---x---x---| -- - --- x---- - ----|x---x---x---x---| -- - -- x----- - ----|

  EbMaj7  Dm7      Gm7                    EbMaj7           F5
e|6---6---5---5---| -- - ---10---- - ----|6-------6-------|-- - -8-----------|
b|8---8---6---6---| -- - ---11---- - ----|6h8-----8-------|-- - -------------|
g|7---7---5---5---| -- -10--10----10 ----|7---------------|-- -10------------|
D|8---8---7---7---| --12 ---12---- -12---|8---------------|--10 -------------|
A|6---6---5---5--8/10- - ---10---- - ----|6--------------6/8- - -------------|
E|x---x---x---x---| -- - --- x---- - ----|x---------------|-- - - -----------|

Verse 6

  EbMaj7  Dm7      Gm7                    EbMaj7  Dm7      Gm7
e|6---6---5---5---| -- - ---10---- - ----|6---6---5---5---| -- - --10----- - ----|
b|8---8---6---6---| -- - ---11---- - ----|8---8---6---6---| -- - --11----- - ----|
g|7---7---5---5---| -- -10--10----10 ----|7---7---5---5---| -- -10-10-----10 ----|
D|8---8---7---7---| --12 ---12---- -12---|8---8---7---7---| --12 --12----- -12---|
A|6---6---5---5--8/10- - ---10---- - ----|6---6---5---5--8/10- - --10----- - ----|
E|x---x---x---x---| -- - --- x---- - ----|x---x---x---x---| -- - -- x----- - ----|

  EbMaj7  Dm7      Gm7                    EbMaj7           F5
e|6---6---5---5---| -- - ---10---- - ----|6--6h8p66-------|-- - -8-----------|
b|8---8---6---6---| -- - ---11---- - ----|6h8-----8-------|-- - -------------|
g|7---7---5---5---| -- -10--10----10 ----|7---------------|-- -10------------|
D|8---8---7---7---| --12 ---12---- -12---|8---------------|--10 -------------|
A|6---6---5---5--8/10- - ---10---- - ----|6--------------6/8- - -------------|
E|x---x---x---x---| -- - --- x---- - ----|x---------------|-- - - -----------|
Tap to rate this tab
# A B C D E F G H I J K L M N O P Q R S T U V W X Y Z