Song name
# A B C D E F G H I J K L M N O P Q R S T U V W X Y Z

Mike Stern - Dolcissimo tab

     E  E  E   Q     E  Q        Q    Q.       E  Q      
E||---------------------------|-------------------------|
B||-----------/3~----4--4~----|--L----------------------|
G||-----3--5------------------|-------3~------/5--5~----|
D||--3------------------------|-------------------------|
A||---------------------------|-------------------------|
E||---------------------------|-------------------------|


  H        E   E  Q        E   E  H.               E  E  E   Q     E  Q      
------------------------|-----------------------|---------------------------|
-----------3h--4--6~----|--L--------------------|-----------/3~----4--4~----|
--L---------------------|-----/7--3~------------|-----3--5------------------|
------------------------|-----------------------|--3------------------------|
------------------------|-----------------------|---------------------------|
------------------------|-----------------------|---------------------------|


  Q    Q.      S  S  Q       E  E  H.               E  E  Q.      E  S  S  E    
--------------------------|----------------------|-----------------------------|
--L-----------------------|-----6----------------|----------------3------------|
-------3~------5h-7p-5----|--L-----3~------------|--2----------------3h-5p-3~--|
--------------------------|----------------------|-----5--3~-------------------|
--------------------------|----------------------|-----------------------------|
--------------------------|----------------------|-----------------------------|


  W                   E  E  E   Q     E  Q        Q    Q.      S  S  Q      
-------------------|---------------------------|---------------------------|
-------------------|-----------/3~----4--4~----|--L------------------------|
--L----------------|-----3--5------------------|-------3~------5h-7p-5~----|
-------------------|--3------------------------|---------------------------|
-------------------|---------------------------|---------------------------|
-------------------|---------------------------|---------------------------|


  Q     Q     E   Q.         Q    E  E  E  Q.         Q     Q    E  Q.       
--------------------------|------------------------|-------/4---------------|
-------/4~----------------|-------------5----------|-------------7--4~------|
--L-----------6~--4~------|--L-------4-----6~------|--L---------------------|
--------------------------|-------6----------------|------------------------|
--------------------------|------------------------|------------------------|
--------------------------|------------------------|------------------------|


  Q    S  S  S  S  Q    E  E      Q.     E  Q     S S E    
-------------------------------|--------------------------|
--L----6p-5p-4p-3~-L----4--4~--|--L-----------------------|
-------------------------------|---------3--3~----5-7-5~--|
-------------------------------|--------------------------|
-------------------------------|--------------------------|
-------------------------------|--------------------------|


                                                     |--3--|   
  Q.     E  Q     S  S  S  S     Q    E  Q     E  E  S  S  S   
------------------------------|-------------------------------|
------------------------------|----------------3--4--3h-4p-3h-|
--L------3--3~----3h-5p-3p-2~-|--L----------------------------|
------------------------------|-------5--3~-------------------|
------------------------------|-------------------------------|
------------------------------|-------------------------------|


  S H.            E.     E  E   E   Q     E  Q      
----------------------|------------/3~----4--4~----|
--1-------------------|-----4h--6------------------|
----3~------------L---|--3-------------------------|
----------------------|----------------------------|
----------------------|----------------------------|
----------------------|----------------------------|


  Q    S  S Q     S  S Q        H        E  E   E   E    
--L---------------1h-3-1~----|--L-----------3S--4S--6S--|
-------4p-3-4~---------------|-----------4--------------|
-----------------------------|--------------------------|
-----------------------------|--------------------------|
-----------------------------|--------------------------|
-----------------------------|--------------------------|


   Q      E   H         E     S S S S S S Q     E  Q      
--11~----------------------|------------3-3~----4--4~----|
---------------------------|--4-------4------------------|
---------12----------------|----5---5--------------------|
-------------13~--------L--|------6----------------------|
---------------------------|-----------------------------|
---------------------------|-----------------------------|


  Q    E  Q     S  S Q        H        E  Q.         E  Q.      E  Q.      
--L-------------1h-3-1~----|--L-------------------|-----------------------|
-------4--4~---------------|-----------4--4~------|--L--3-----------------|
---------------------------|----------------------|------------\5--3------|
---------------------------|----------------------|-----------------------|
---------------------------|----------------------|-----------------------|
---------------------------|----------------------|-----------------------|


   E  E  H         E  E     E  Q     E  H             H         E  E  E  E    
--/6--4--4~--------2-----|------------------------|--/4~--------2------------|
----------------------5--|--2--4h----5--5~--------|----------------5--2--4~--|
-------------------------|------------------------|--------------------------|
-------------------------|------------------------|--------------------------|
-------------------------|------------------------|--------------------------|
-------------------------|------------------------|--------------------------|


  E  Q     H         E      H         E  E  E  E      Q     E  H         E   
------------------------|--/4~--------L--3--------|-------------------------|
--L--5b----5~--------L--|-------------------4-----|--/3~----4--4~--------L--|
------------------------|----------------------5--|-------------------------|
------------------------|-------------------------|-------------------------|
------------------------|-------------------------|-------------------------|
------------------------|-------------------------|-------------------------|


  S  S  Q.      S  S  Q.         E  H          Q    E   
------------------------------|--1---------------------|
----------------1h-3p-1~------|------------------------|
--3p-2h-3~--------------------|-----3~--------/2-------|
------------------------------|---------------------3--|
------------------------------|------------------------|
------------------------------|------------------------|


   Q    S S  H        E     E  E  E  E  E  E  E  E   
-------------------------|--------------------------|
--/3---------------------|--------------------3-----|
--------5-3~-L--------L--|--------------3--2-----3--|
-------------------------|-----------3--------------|
-------------------------|--1--3--5-----------------|
-------------------------|--------------------------|


  E   E   E   E   H           W                  
--------------1~--0--------|--L----------------||
----------3~------L--------|--L----------------||
------3~----------L--------|--L----------------||
--3~--------------L--------|--L----------------||
---------------------------|-------------------||
---------------------------|-------------------||




Duration Legend
---------------
W - whole
H - half
Q - quarter
E - 8th
S - 16th
T - 32nd
X - 64th
. - note dotted
|-n-|  - n-tuplets


Tablature Legend
----------------
L - tied note
x - dead note
g - grace note
(n) - ghost note
> - accentuded note
NH - natural harmonic
AH - artificial harmonic
TH - tapped harmonic
SH - semi harmonic
PH - pitch harmonic
h - hammer on
p - pull off
b - bend
br - bendRelease
pb - preBend
pbr - preBendRelease
brb - bendReleaseBend
\n/ - tremolo bar dip
\n - tremolo bar dive
-/n - tremolo bar Release up
/n\ - tremolo bar inverted dip
/n - tremolo bar return
-\n - tremolo bar Release down
S - shift slide
s - legato slide
/ -  slide into from below or out of upwards
\ -  slide into from above or out of downwards
~ - vibrato
W - wide vibrato
tr - trill
TP - tremolo picking
T - tapping
S - slap
P - pop
< - fade in
^ - brush up
v - brush down
Tap to rate this tab
 
# A B C D E F G H I J K L M N O P Q R S T U V W X Y Z