Mike Tompkins - Only Girl tab

Mike Tompkins's Acapella Cover of Only Girl by Rihanna converted to Guitar/Bass

/-Slide Up
\-Slide Down

Verse 1
Synth 1 (Synth 2 plays same part an octave higher)
E|---------------------|
B|---------------5-4---|
G|-----4---6-4-4-------|
D|-6-6---6-------------|
A|---------------------|
E|---------------------|
Bass
G|---------------------------------------------------------------|
D|---------------------------------------------------------------|
A|-7-7\/7---------7-7-6-6---------7-7\/7---------7-7-9-9-4-4/4/4-|
E|-------4-4/4/4---------4-4/4/4---------4-4/4/4-----------------|

Chorus
Synth 1
E|----------------------------------------|-----------------------------|
B|-10---9-10-9-10-12-14---12-14-12-17-17--|-10---9-10-9-10-12-7----9-10-|
G|-6----4-6--4-6--8--9----8--9--8--13-13--|-6----4-6--4-6--8--2----4-6--|
D|-7----6-7--6-7--9--11---9--11-9--14-14--|-7----6-7--6-7--9--4----6-7--|
A|----------------------------------------|-----------------------------|
E|----------------------------------------|-----------------------------|
Bass
G|-------------------------------------------------------------------|
D|-------------------------------------------------------------------|
A|-------------------------------------------------------------------|
E|-5-5-5-5-5-5-7-7-9-9-9-9-9-9-12-12-5-5-5-5-5-5-7-7-2-2-2/4/5-5-5-5-|

Bridge
Bass
G|-----------------------------------------|
D|-----------------------------------------|
A|-----------------------------------------|
E|-12-12-14-14-9-9-9-9-12-12-14-14-9-9-9-9-|
Synth 1
E|-------------------------------------|
B|-------------------------------------|
G|-------------------------------------|
D|-------------------------------------|
A|--7-7-9-9-11-11-11-11-7-7-9-9-4-4-4-4|
E|-------------------------------------|

Outro
Synth 1
E|----------------------------------------|-----------------------------|
B|-10---9-10-9-10-12-14---12-14-12-17-17--|-10---9-10-9-10-12-7----9-10-|
G|-6----4-6--4-6--8--9----8--9--8--13-13--|-6----4-6--4-6--8--2----4-6--|
D|-7----6-7--6-7--9--11---9--11-9--14-14--|-7----6-7--6-7--9--4----6-7--|
A|----------------------------------------|-----------------------------|
E|----------------------------------------|-----------------------------|
Bass
G|-------------------------------------------------------------------|
D|-------------------------------------------------------------------|
A|-------------------------------------------------------------------|
E|-5-5-5-5-5-5-7-7-9-9-9-9-9-9-12-12-5-5-5-5-5-5-7-7-2-2-2/4/5-5-5-5-|
Synth 2
E|------------------------------------------------------------|
B|---7-77-7-7-79-9---7-77-7-7--9-9----7-77-7-7-79-9-7----9-10-|
G|------------------------------------------------------------|
D|------------------------------------------------------------|
A|------------------------------------------------------------|
E|------------------------------------------------------------|

Enjoy!
Tap to rate this tab
 
# A B C D E F G H I J K L M N O P Q R S T U V W X Y Z