Guitaretab - guitar tabs
Song name
# A B C D E F G H I J K L M N O P Q R S T U V W X Y Z

Mike Viola - Meet Me In The Middle tab

Song: Meet Me in the Middle
Artist: Mike Viola
Album: http://www.youtube.com/watch?v=faNwzriDZRI

Intro

|----------------------------|
|1-1-1-1-1-1-1-1-1-1-1-1-1---|
|0-0-0-0-0-0-0-0-0-0-0-0-0---|
|2-2-3-2-2-3-2-2-3-2-2-3-2---|
|3-3-3-3-3-3-3-3-3-3-3-3-3---|
|----------------------------|

All Verses

|5-5-5-5-5-5-5-5-3-3-3-3-3-3-0-0---|
|5-5-5-5-6-6-6-6-3-3-3-3-5-5-0-0---|
|6-6-6-6-5-5-5-5-4-4-4-4-3-3-1-1---|
|5-5-5-5-7-7-7-7-3-3-3-3-5-5-2-2---|
|7-7-7-7-5-5-5-5-5-5-5-5-3-3-2-2---|
|5-5-5-5---------3-3-3-3-----0-0---|

|5-5-5-5-5-5-5-5-1-1-4-4---|
|5-5-5-5-6-6-6-6-1-1-4-4---|
|6-6-6-6-5-5-5-5-2-2-5-5---|
|5-5-5-5-7-7-7-7-1-1-4-4---|
|7-7-7-7-5-5-5-5-3-3-6-6---|
|5-5-5-5---------1-1-4-4---|

Interlude 
[ Tab from: http://www.guitaretab.com/m/mike-viola/192787.html ]
|----------------------------|
|1-1-1-1-1-1-1-1-1-1-1-1-1---|
|0-0-0-0-0-0-0-0-0-0-0-0-0---|
|2-2-3-2-2-3-2-2-3-2-2-3-2---|
|3-3-3-3-3-3-3-3-3-3-3-3-3---|
|----------------------------|

Chorus

|----------------------------------------------------|
|1-1-3-1-1-3-1-1-3-1-1-3-1-1-1-1-1-1-1-1-1-1-1-1-1---|
|2-2-2-2-2-2-2-2-2-2-2-2-0-0-0-00-00-0-0-0-0-0-0---|
|x-x-x-x-x-x-x-x-x-x-x-x-2-2-3-2-2-3-2-2-3-2-2-3-2---|
|3-3-3-3-3-3-3-3-3-3-3-3-3-3-3-3-3-3-3-3-3-3-3-3-3---|
|----------------------------------------------------|

Bridge

|3-3-3-3-1-1-1-1-|
|3-3-3-3-1-1-1-1-|
|4-4-4-4-2-2-2-2-|
|3-3-3-3-1-1-1-1-|
|5-5-5-5-3-3-3-3-|
|3-3-3-3-1-1-1-1-|

|3-3-3-3-5-5-5-5-|
|3-3-3-3-5-5-5-5-|
|4-4-4-4-6-6-6-6-|
|3-3-3-3-5-5-5-5-|
|5-5-5-5-7-7-7-7-|
|3-3-3-3-5-5-5-5-|
Related for Meet Me In The Middle tab