Song name
# A B C D E F G H I J K L M N O P Q R S T U V W X Y Z

Mikey Powell And The Villains Trust - Proud Father tab

This is my first tab, so don't be hatin'. Good song if you know it. Couldn't find 
a tab anywhere, so my lil bro told me to sit down one morning and figure it out. 
This is the fruit of my labor. Enjoy.





Intro

You figure out the timing.
						    h
E|---------------------------------------------------------------------------|   x4
B|---------------------------------------------------------------------------|
G|---------------------------------------------------------------------------|
D|-------------7-----5------------------5-----------2^3-2---0----------------|
A|----------5-----5------------------5-----5---------------------------------|
D|----0-----------------------0----------------------------------------------|

Solo time. Again you figure out the timing.
                                                                  p
|----------------------------------------------------------------------------|
|-------------------13-------------------------------------------------------|
|------14------------------14--------------14^12---10----7-------------------|
|----------------------------------------------------------------------------|
|----------------------------------------------------------------------------|
|----------------------------------------------------------------------------|
                h                              h                                             h
|------------------------------------------------------------------------------------|
|------------------------------------------------------------------------------------|
|-------------------------------------------------------10-10-------10^12-12---------|
|----7---7^10---10----------10^12-12----12-------------------------------------------|
|------------------------------------------------------------------------------------|
|------------------------------------------------------------------------------------|
|------------------------------------------------------------------------------------|
              s                                b
|--------------------------------15^-----------------------------------------|
|----------------------------------------------------------------------------|
|------12^14-14--------------------------------------------------------------|
|----------------------------------------------------------------------------|
|----------------------------------------------------------------------------|
|----------------------------------------------------------------------------|


Main Riff

|---------||----------------------------------------------------------------------||
|---------||----------------------------------------------------------------------||
|-----7---||-------7-----5-------5-------3-------3---5-----5----7-----------------||
|-----7---||-------7-----5-------5-------3-------3---5-----5----7-----------------||
|-----5---||-------5-----3-------3-------1-------1---3-----3----5-----------------||
|---------||----------------------------------------------------------------------||


h= hammer-on  p=pull-off  s=slide  b=bend
Tap to rate this tab
# A B C D E F G H I J K L M N O P Q R S T U V W X Y Z