Song name
# A B C D E F G H I J K L M N O P Q R S T U V W X Y Z

Miki Higashino - Headquarters Bgm 1 tab

-------------------------------------------------------------------------------
			     SONG NAME - Band Name
-------------------------------------------------------------------------------
Tabbed by: dann88
Email: marksman_clive@yahoo.com

Tuning: Standard

Intro:

e|---------------------------------------------------------------------------|
B|---------------------------------------------------------------------------|
G|---------------------------------------------------------------------------|
D|----2--5---2--5-----2--5---2--5------2--5---2--5-----2--5---2--5-----------|
A|-0---------------0----------------0---------------0------------------------|
E|---------------------------------------------------------------------------|

Verse 1:

e|----------0---0--2--0---0--------------------------------------------------|
B|----------------------------3--3--2---2--0---------------------------------|
G|---2--2---------------------------------------2--0--2----------------------|
D|---------------------------------------------------------------------------|
A|---------------------------------------------------------------------------|
E|---------------------------------------------------------------------------|

e|----------0---0--2--0---0--------------------------------------------------|
B|----------------------------3--3--2---2--0---------------------------------|
G|---2--2---------------------------------------2--0--2----------------------|
D|---------------------------------------------------------------------------|
A|---------------------------------------------------------------------------|
E|---------------------------------------------------------------------------|

Verse 2:

e|-5--3--2--0------5--3--2--0------5--3--2--0-------------0------------------|
B|-----------------------------------------------3--2--3-----0---------------|
G|---------------------------------------------------------------------------|
D|---------------------------------------------------------------------------|
A|---------------------------------------------------------------------------|
E|---------------------------------------------------------------------------|

e|-5--3--2--0------5--3--2--0------5--3-----2--0-----------------------------|
B|-------------------------------------------------3-2-0---------------------|
G|--------------------------------------------------------0-2----------------|
D|---------------------------------------------------------------------------|
A|---------------------------------------------------------------------------|
E|---------------------------------------------------------------------------|

And that's my first tab. Enjoy!
Tap to rate this tab
# A B C D E F G H I J K L M N O P Q R S T U V W X Y Z