Song name
# A B C D E F G H I J K L M N O P Q R S T U V W X Y Z

Mikis Theodorakis - Epitafios No 5 tab

Epitafios 5 - Mikis Theodorakis (1925-)

As played by John Williams in his (awesome) CD "The Guitarist"

If you have questions about this tab please email "sarsorus at gmail" (Oct 2007)

The key is E, and the time signature is 2:2
John Williams plays it ~120bpm (Allegro ?)


   |    .   |    .            |       .       |       .
E||----------------------||---0-------0-----4-2---0-------0--|
B||--------------0-------||---0-----0---0---0---------4------|
G||----------------------||*--1-----------1---2---1-------1--|
D||----------------------||*------2-------------------4------|
A||----------------2-0---||-----2----------------------------|
E||--------------------2-||---0------------------------------|
                   2   2      1 3 4         4 2   1   4   1
                                              1       3  

-C2------------------------------
  |       .       |       .        |        .       |       .
--2-------2---2-4-2-------2---4--|--5-----4-5---7---4-------0-----4-|
------2-5---5-------2---2--------|----2-------------0---------------|
----2-----------------2----------|--------------------------1-------|
---------------------------------|------4---------------2-2-2-------|
---------------------------------|----------------------------------|
--2------------------------------|------------------0-----------0---|
                                    4 1 2 3 4   4   4   2         4

/-C2--------------
  |        .       |       .          |       .       |       .              
--2--------------------------------|--0-------0-----4-2---0-------0--|
------5----4---2---0-------0-------|--0-----0---0---0---------4------|
--2------------2-------------------|--1-----------1---2---1-------1--|
-----------------------------------|------2-------------------4------|
-------------------2---2-2---2-0---|----2----------------------------|
--2------2-2---2-----------------2-|--0------------------------------|


  |       .       |       .         |       .       |       .
--2-------2---2-4-2-------4---5--|--7-----9-7---5---4-------0---4----|
------2-5---5-------2---2--------|----0-------0---0---0---0----------|
----2-----------------2----------|-----------------------------------|
---------------------------------|------7---------------2------------|
---------------------------------|--------------------------420------|
--2------------------------------|------------------------------4-0--|
                          3   4     2   1 4 2   2   4   2   42  3
                                                                2

-C2-------------
  |       .       |       .         |       .       |       .        
--2-----------2---0--------------|--0---------------0-------0---2--|
------5---4---4---0--------------|--0---------------0---0----------|
--------------4---1-----------1--|--1-----------1---1--------------|
--------------4-------2-2--------|------2-2------------------------|
----------2---2-----------2------|----------2----------------------|
--2-----2---------0--------------|--0---------------0--------------|
          4  rasg

  |       .       |       .         |       .       |       .       
--4---4---4---4---2---0-------2--|--0-----------------------0---2--|
--0---------------0-------4---0--|--0-----------0-------0----------|
--1---------------2-----------2--|--1------------------------------|
---------------------------------|------2-2---------------------1--|
---------------------------------|----------2---------------4------|
--0-----0-0---0---0--------------|--0---------------4---4----------|

  |       .       |       .        |      .     |     .      
--4---4---4---4---2---0-------2--|--0-----------------------|
--0---0---0---0-----------4------|--------------------------|
--1-------1-------2-----------2--|--1--1--2--4--6--6--1--2--|
--2---2-2-2---2---1-----------1--|--2--2--4--6--7--7--2--4--|
---------------------------------|--------------------------|
---------------------------------|--------------0--0--------|

  |     .     |     .        |     .     |     .     
--------------------------|--------------------------|
--------------------------|--------------------------|
--4--4--4--4--8--8--6--6--|--4--4--1--1--4--4--8--6--|
--6--6--6--6--9--9--7--7--|--6--6--2--2--6--6--9--7--|
--------------------------|--------------------------|
--0--0--------0--0--0--0--|--0--0--------0--0--0--0--|

  |     .     |     .        |       .       |       .     
--------------------------|------4---5---7---9---9---4---5--|
--------------------------|------5---7---9---10--10--5---7--|
--4--4--1--1--4--4--2--2--|--1------------------------------|
--6--6--2--2--6--6--4--4--|--2------------------------------|
--------------------------|---------------------------------|
--0--0--------0-----0-----|--0---------------0---0-0-0---0--|

  |       .       |       .          |       .       |       .
--7---7---7---7---11--11--9---9---|--7---7---4---4---7---7---11--9---|
--9---9---9---9---12--12--10--10--|--9---9---5---5---9---9---12--10--|
----------------------------------|----------------------------------|
----------------------------------|----------------------------------|
----------------------------------|----------------------------------|
--0---0-0-0---0---0---0-0-0---0---|--0---0-0-0---0---0---0-0-0---0---|

                                  __________________  ________________
  |       .       |       .      |(1)       .        | (1)       .
--7---7---4---4---7---7---5---5--|--4----------------||--4-----------7--|
--9---9---5---5---9---9---7---7--|--5-------0--------||--5-------0------|
---------------------------------|------------------*||-----------------|
---------------------------------|------------------*||-----------------|
---------------------------------|------------2-0----||-----------------|
--0---0-0-0---0---0---0-0-0---0--|--0---2-2-------2--||--0---7-7---7----|
                                                             3        4

                                    -C2------------------------------
  |       .       |       .          |       .       |       .
------7-------7-------7-----------|----------------------------------|
----0---0---0---0---0---0---0---0-|------2---------------2-----------|
----------------------------------|----2---------------2---2---2---2-|
----------------6-4---------------|--4-----2-4p2h4-6-4-------4---6---|
--7-------7-----------7---6---7---|----------------------------------|
----------------------------------|----------------------------------|
  3   4         2 1                  3       3     4 3       3   4

-C2--------------                    -C2----------------------
  |       .       |       .          |       .       |       .
------2---------------0-------0---|------2-------2-------2-----------|
----2-------2---2---0---0---0---0-|----2---2---2---2-----------------|
--2-------2---4---1-----------1---|--------------------4---4---4-----|
--------6-----------------2-------|--4---2---------------------------|
----------------------------------|----------6---4---2-------2--p0---|
----------------------------------|--------------------------------2-|
  p i m p i m i m                                                  2


  |       .       |       .         |       .       |       .
--0-------0-----4-2---0-------0--|--2-------2---2-4-2-------4---5--|
--0-----0---0---0---------4------|------2-5---5-------2---2--------|
--1-----------1---2---1-------1--|----2-----------------2----------|
------2-------------------4------|---------------------------------|
----2----------------------------|---------------------------------|
--0------------------------------|--2------------------------------|


 |        .       |       .
--7-----9-7---5---4-------0---4----|--2-------------2---0--------------|
----0-------0---0---0---0----------|------5-----4---4---0--------------|
-----------------------------------|----------------4---1-----------1--|
------7---------------2------------|----------------4---2---2-2--------|
--------------------------420------|------------2---2---2-------2------|
------------------------------4-0--|--2------2----------0--------------|
  2   1 4 2   2   4   2   42  3
                              2

  |       .        |
--0---0-0-----16---12--------||
--0-------0------------------||
--1--------------------------||
--2--------------------------||
--2--------------------------||
--0-----------0----0---------||


You were kind and sweet of temper, aIl the good graces were yours,
all the wind's caresses, all the lilly flowers of the garden.

You were light of foot, treading as softly as a gazelle,
when you stepped past our threshold it always glittered like gold.

I drew youth from your youth and to boot, I could even smile.
Old age never daunted me and death I could disregard.

But now where can I hold my ground? Where can I find shelter?
I'm stranded like a withered tree in a plain buried in snow.

Tap to rate this tab
# A B C D E F G H I J K L M N O P Q R S T U V W X Y Z