Miku Hatsune - Yukkuri Shiteitte Ne tab

-------------------------------------------------------------------------------
			     Yukkuri Shiteitte - Miku Hatsune
-------------------------------------------------------------------------------
Tabbed by: Shane McChristy
Email: master_shane01@yahoo.com

Tuning: Drop D

Note: For any suggestions, corrections, and/or tabs you want done--email me at the above address.

Intro
e|----------------------------------------------------------------------|
B|----------------------------------------------------------------------|
G|--7-7-7-7-7-7-7-7-7-7-7-7-7-7-7-7--5-5-5-5-5-5-5-5-5-5-5-5-5-5-5-5----|
D|--7-7-7-7-7-7-7-7-7-7-7-7-7-7-7-7--5-5-5-5-5-5-5-5-5-5-5-5-5-5-5-5----|
A|--5-5-5-5-5-5-5-5-5-5-5-5-5-5-5-5--3-3-3-3-3-3-3-3-3-3-3-3-3-3-3-3----|
D|----------------------------------------------------------------------|

e|--------------------------------------------------------------------------|
B|--------------------------------------------------------------------------|
G|-10-10-10-10-10-10-10-10-10-10-10-10-10-10-10-10--14-14-14-14-14-14-14-14-|
D|-10-10-10-10-10-10-10-10-10-10-10-10-10-10-10-10--14-14-14-14-14-14-14-14-|
A|--8--8--8--8--8--8--8--8--8--8--8--8--8--8--8--8--12-12-12-12-12-12-12-12-|
D|--------------------------------------------------------------------------|

e|----------------------------|
B|----------------------------|
G|-14-14-14-14-14-14-14-14----|
D|-14-14-14-14-14-14-14-14----|
A|-12-12-12-12-12-12-12-12----|
D|----------------------------|

Bridge
e|--------------------------|  x2
B|--------------------------|
G|--2-2--2-2--2-------------|
D|--0-0--0-0--0-3-5---------|
A|--0-0--0-0--0-3-5---------|
D|--0-0--0-0--0-3-5---------|

Riff 1
e|------------------------------------------------------|  x2
B|------------------------------------------------------|
G|--2-2--2-2--2---------2-2---------2-2--------2--------|
D|--0-0--0-0--0--3--5---0-0--3-5----0-0---3-5--0--------|
A|--0-0--0-0--0--3--5---0-0--3-5----0-0---3-5--0--------|
D|--0-0--0-0--0--3--5---0-0--3-5----0-0---3-5--0--------|

e|--------------|
B|--------------|
G|--2-x16--2----|
D|--0------0----|
A|--0------0----|
D|--0------0----|

Verse
e|----------------------------------------------------|
B|----------------------------------------------------|
G|--------2--------2-2-------2-2--------2--------2----|
D|--------0--------0-0--3-5--0-0--3-5---0--------0----|
A|--------0--------0-0--3-5--0-0--3-5---0--------0----|
D|--------0--------0-0--3-5--0-0--3-5---0--------0----|

e|--------------------------|
B|--------------------------|
G|----2-2-------2-2---------|
D|----0-0--3-5--0-0--3-5----|
A|----0-0--3-5--0-0--3-5----|
D|----0-0--3-5--0-0--3-5----|

Chorus
e|-------------------x2----|------------|
B|--------8-x15------------|-----x16----|
G|--2-x16-7-----5----------|--2---------|
D|--0-----5-----5----------|--0---------|
A|--0-----------3----------|--0---------|
D|--0----------------------|--0---------|

Riff 2
e|-----------------------------------------------|  x2
B|------6-6-6/8-8-8-8-6-------6-6-------6-6------|
G|--2-2-5-5-5/7-7-7-7-5-2-2-2-5-5-5-5-5-5-5-2----|
D|--0-0-3-3-3/5-5-5-5-3-0-0-0-3-3-5-5-5-3-3-0----|
A|--0-0-----------------0-0-0-----3-3-3-----0----|
D|--0-0-----------------0-0-0---------------0----|

e|-------|
B|-------|
G|--2----|
D|--0----|
A|--0----|
D|--0----|

Verse 2
e|----------------------------------------------------|
B|----------------------------------------------------|
G|--------2--------2-2-------2-2--------2--------2----|
D|--------0--------0-0--3-5--0-0--3-5---0--------0----|
A|--------0--------0-0--3-5--0-0--3-5---0--------0----|
D|--------0--------0-0--3-5--0-0--3-5---0--------0----|

e|--------------------------|
B|--------------------------|
G|----2-2-------2-2---------|
D|----0-0--3-5--0-0--3-5----|
A|----0-0--3-5--0-0--3-5----|
D|----0-0--3-5--0-0--3-5----|

Chorus
e|-------------------x2----|------------|
B|--------8-x15------------|-----x16----|
G|--2-x16-7-----5----------|--2---------|
D|--0-----5-----5----------|--0---------|
A|--0-----------3----------|--0---------|
D|--0----------------------|--0---------|

e|-----------|
B|--6-6-6----|
G|--5-5-5----|
D|--3-3-3----|
A|-----------|
D|-----------|

Riff 2
e|-----------------------------------------------|  x2
B|------6-6-6/8-8-8-8-6-------6-6-------6-6------|
G|--2-2-5-5-5/7-7-7-7-5-2-2-2-5-5-5-5-5-5-5-2----|
D|--0-0-3-3-3/5-5-5-5-3-0-0-0-3-3-5-5-5-3-3-0----|
A|--0-0-----------------0-0-0-----3-3-3-----0----|
D|--0-0-----------------0-0-0---------------0----|

e|--------------------------------------------------------------------------|
B|-------------------x2--8-8-8-8-8-8-8-8--6-6-6-6-6-6-6-6-------------------|
G|--2-2-2-2-2-2-2-2------7-7-7-7-7-7-7-7--5-5-5-5-5-5-5-5-------------------|
D|--0-0-0-0-0-0-0-0------5-5-5-5-5-5-5-5--3-3-3-3-3-3-3-3-------------------|
A|--0-0-0-0-0-0-0-0---------------------------------------------------------|
D|--0-0-0-0-0-0-0-0---------------------------------------------------------|

e|--------------------------------------------------------------------------|
B|--------------------------------------------------------------------------|
G|--2-2-2--2-2--2-----------------------------------------------------------|
D|--0-0-0--0-0--0-3-5-------------------------------------------------------|
A|--0-0-0--0-0--0-3-5-------------------------------------------------------|
D|--0-0-0--0-0--0-3-5-------------------------------------------------------|

Chorus
e|-------------------------|  x2
B|--------8-x15------------|
G|--2-x16-7-----5----------|
D|--0-----5-----5----------|
A|--0-----------3----------|
D|--0----------------------|

Outro
e|------------------------------------------------------------------------------|
B|------------------------------------------------------------------------------|
G|--2--2--2-2--2-2--2-----------------------------------------------------------|
D|--0--0--0-0--0-0--0--3--3--3-3--3-3--3--5--5--5-5--5-5--5--7--7--7-7--7-7--7--|
A|--0--0--0-0--0-0--0--3--3--3-3--3-3--3--5--5--5-5--5-5--5--7--7--7-7--7-7--7--|
D|--0--0--0-0--0-0--0--3--3--3-3--3-3--3--5--5--5-5--5-5--5--7--7--7-7--7-7--7--|

e|---------------------------|
B|---------------------------|
G|--2-2--2-2--2-----2--2-----|
D|--0-0--0-0--0-3-5-0--0-----|
A|--0-0--0-0--0-3-5-0--0-----|
D|--0-0--0-0--0-3-5-0--0-----|

************************************

| /   slide up
| \   slide down
| h   hammer-on
| p   pull-off
| ~   vibrato
| +   harmonic
| x   Mute note
| b   Bend
| pb  Pre-bend
| br  Bend release
| pbr Pre-bend release
| brb Bend release bend

************************************
Tap to rate this tab
 
# A B C D E F G H I J K L M N O P Q R S T U V W X Y Z