Song name
# A B C D E F G H I J K L M N O P Q R S T U V W X Y Z

Miku Hatsune - Love Is War tab

Miku Hatsune - Love Is War
Tabbed By: Sheppy96
Email: maggots1996(art)googlemail(dawtcom)
Tuning: Drop D
(Pretty sure the song is in B minor)

======================================================
======================================================
======================================================

INTRO
          v     v     v    v     v     v     v     v     v     v
E|------------------------------------------------------------------|
B|--------4-----4-----5----5-----5-----5---2p0---2p0---2p0---2p0----|
G|--3-3h5---3h5---4h6--4h6---4h6---4h6---2-----2-----2-----2-----2--|
D|------------------------------------------------------------------|
A|------------------------------------------------------------------|
D|------------------------------------------------------------------|
      v     v     v     v     v     v     v     v     v     v     v     v     v     v     v
E|------------------------------------------------------------------------------------------------|
B|--2h5-----5-----5---2p0---2p0---2p0h2---2-----4-----4-----4-----4-----5-----5-----5-----5-------|
G|------4h6---4h6---2-----2-----2-------2---3h5---3h5---3h5---3h5---4h6---4h6---4h6---4h6---5p3h5-|
D|------------------------------------------------------------------------------------------------|
A|------------------------------------------------------------------------------------------------|
D|------------------------------------------------------------------------------------------------|
        v     v     v     v         v     v    v
E|------------------------------------------------|
B|----2p0---2p0---2p0---2p0-0-------5-----5----5--|
G|--2-----2-----2-----2-------2p0h2---3h5---3h5---|
D|------------------------------------------------|
A|------------------------------------------------|
D|------------------------------------------------|

======================================================
======================================================
======================================================
CHORUS

E|---------------------------------------------------------------------------|
B|--------------------------5------------------------------------------------|
G|--11----------9-----------7-7-7-7-7-7-9-----------8------------9-----------|
D|--9-9-9-9-9-9-5-5-5-5-5-5-7-7-7-7-7-7-7-7-7-7-7-7-6-6-6-6-6-6-7-7-7-7-7-7--|
A|--9-9-9-9-9-9-5-5-5-5-5-5-5-5-5-5-5-5-7-7-7-7-7-7-6-6-6-6-6-6-7-7-7-7-7-7--|
D|--9-9-9-9-9-9-5-5-5-5-5-5-------------7-7-7-7-7-7-6-6-6-6-6-6-7-7-7-7-7-7--|

E|--------------------------------|---------------------------------------------------|
B|--------------------------------|--------------------------5------------------------|
G|--11----------9-----------------|--11----------9-----------7-7-7-7-7-7-9------------|
D|--9-9-9-9-9-9-7-7-7-7--7*7*-7*--|--9-9-9-9-9-9-5-5-5-5-5-5-7-7-7-7-7-7-7-7-7-7-7-7--|
A|--9-9-9-9-9-9-7-7-7-7--7*7*-7*--|--9-9-9-9-9-9-5-5-5-5-5-5-5-5-5-5-5-5-7-7-7-7-7-7--|
D|--9-9-9-9-9-9-7-7-7-7-----------|--9-9-9-9-9-9-5-5-5-5-5-5-------------7-7-7-7-7-7--|

E|---------------------------------------------------------------|
B|---------------------------------------------------------------|
G|--8-----------9-----------11----------9-----------9------------|
D|--6-6-6-6-6-6-7-7-7-7-7-7-9-9-9-9-9-9-7-7-7-7-7-7-7-7-7-7-7-7--|
A|--6-6-6-6-6-6-7-7-7-7-7-7-9-9-9-9-9-9-7-7-7-7-7-7-7-7-7-7-7-7--|
D|--6-6-6-6-6-6-7-7-7-7-7-7-9-9-9-9-9-9-7-7-7-7-7-7-7-7-7-7-7-7--|

======================================================
======================================================
======================================================

VERSE

There is an open b string played over the top of this for the first part
         v     v                               v
E|-----------------|                    E|----------|
B|-----------------|                    B|--3--3p0--|
G|-------2-----2---| Repeat that x 12   G|----------|
D|--4--4-----4-----|                    D|----------|
A|-----------------|                    A|----------|
D|-----------------|                    D|----------|
                                        (verse two has this extra bit over the top)

        v     v     v     v 
E|-----------------------------------|
B|----2p0---2p0---2p0---2p0---2p0h2--|
G|--4-----4-----4-----4-----4--------|
D|-----------------------------------|
A|-----------------------------------|
D|-----------------------------------|
        
E|-------------------------------------------------------------|
B|------5-----5-----5-----5-----5-----3------3------3-3--------|
G|--3h5---3h5---3h5---3h5---3h5---3h5----3h5----3h5-----5p3h5--| Repeat till end of verse
D|-------------------------------------------------------------|
A|-------------------------------------------------------------|
D|-------------------------------------------------------------|

======================================================
======================================================
======================================================

ORDER:

Intro
Chorus
Verse
Chorus
Verse 2
Chorus
Chorus

(Ending note is pedal on b btw)
Tap to rate this tab
 
# A B C D E F G H I J K L M N O P Q R S T U V W X Y Z