Song name
# A B C D E F G H I J K L M N O P Q R S T U V W X Y Z

Miku Hatsune - Puzzle tab

UH... this is link for video http://www.youtube.com/watch?v=3-Te1Qfiasg

tuned half step down
Chords: G, C, D, Bm


remember this tab is a cover of GSOSBand(a youtube user)!!
and I am the maker of this tabs since he doesn't have any tabs(I am shinryu432)
email me or add me shinryu43@yahoo.com

this is version 2 of my first tab this one is with solo sent by GSOSBand
I'll keep updating this tab since GSOSBand would be providing the outro solo

Intro

|----------------------|
|----------------------|
|-------5555-7777-4444-|
|--5555-5555-7777-4444-|
|--5555-3333-5555-2222-|
|--3333----------------|
                 let ring
|------------------------|
|------------------------|
|-------5555-7777~-------|
|--5555-5555-7777~-------|
|--5555-3333-5555~-------|
|--3333------------------|

This starts at 00:17

|--------------------------|x3
|--------------------------|
|--------55555-77777-44444-|
|--55555-55555-77777-44444-|
|--55555-33333-55555-22222-|
|--33333-------------------|
                   let ring
|-----------------------|
|-----------------------|
|--------55555-77777~---|
|--55555-55555-77777~---|
|--55555-33333-55555~---|
|--33333----------------|

this starts at 00:40

|----10---7~---10---8-7-8-7--|----10---7~---7---10-10-8-7--|
|--7----7----7----7----------|--7----7----7---7------------|
|----------------------------|-----------------------------|
|----------------------------|-----------------------------|
|----------------------------|-----------------------------|
|----------------------------|-----------------------------|

|----10---7~-8----7~-|
|--7----7------7-----|
|--------------------|
|--------------------|
|--------------------|
|--------------------|

This starts at 01:02

|--------------|x2
|--------------|
|-----5~-7~-4~-|
|--5~-5~-7~-4~-|
|--5~-3~-5~-2~-|
|--3~----------|

|------|
|------|
|------|
|--5~--|
|--5~--|
|--3~--|

Chorus

|---------------------|x3
|---------------------|
|------5555-777-4444--|
|--555-5555-777-4444--|
|--555-3333-555-2222--|
|--333----------------|

|------------------|
|------------------|
|------5555-777~---|
|--555-5555-777~---|
|--555-3333-555~---|
|--333-------------|

NO guitar play from 01:41 to 01:52

This starts at 01:53


|-----------------8-7-8-7-8/9-8-7----------------|
|--7-8--9---7/8-7-----------------8-7-7/9-9-7-7~-|
|------------------------------------------------|
|------------------------------------------------|
|------------------------------------------------|
|------------------------------------------------|

continues here

|----------7-7-----------9-9---------|
|--1/7-8-8-----1/6/7-8-8-----1/7-8-8-|
|------------------------------------|
|------------------------------------|
|------------------------------------|
|------------------------------------|

|---------------|
|---------------|
|--xx777777777--|
|--xx777777777--|
|--xx555555555--|
|---------------|

Solo
the solo was sent to me by GSOSBand please subscribe at his page at youtube!!

|----------------------------|------------------------ 7-8~--|
|----------------------------|----------10b12bd-10~----------|
|----9b12bd--7~--------------|----*--------------------------|
|----------------------------|----*--------------------------|
|----------------------------|----*--------------------------|
|----------------------------|----*--------------------------|

|-7-------------------------------------------------------|
|----------8b10bd8~---7-8-7-------------------------------|
|--------------------------------9b11-9-7-----7-9~--------|
|-----------------------------------------9---------------|
|---------------------------------------------------------|
|---------------------------------------------------------|

|------------------------------------------------12-15b17-|
|------------------------10~----10-12/15-15---------------|
|----7---7-7-9/11----------11-----------------------------|
|-/9---9--------------------------------------------------|
|---------------------------------------------------------|
|---------------------------------------------------------|

|-12h15p12--------------12-15b17--12h15p12---------12-15b17bd15~--|
|------------------15b17-----------------------15b17--------------|
|-----------------------------------------------------------------|
|-----------------------------------------------------------------|
|-----------------------------------------------------------------|
|-----------------------------------------------------------------|

|-/15-17-17b19(hold the bend)-tab 20 and flick off (still hold the bend) ~~ and let go the bend--|
|------------------------------------------------------------------------------------------------|
|------------------------------------------------------------------------------------------------|
|------------------------------------------------------------------------------------------------|
|------------------------------------------------------------------------------------------------|
|------------------------------------------------------------------------------------------------|

|-15h17-17~----15h17p15/14-15p14----------------------------------------|
|--------------------------------------------15-----13-12---------------|
|-------------------------------------------------16----------14b16-14~-|
|-----------------------------------------------------------------------|
|-----------------------------------------------------------------------|
|-----------------------------------------------------------------------|

|-----------------------------------------15----12h15p12------------12--15---15b17-15b17bd15~--|
|-----------------------15b17-15--12----------------------15b17--------------------------------|
|-12-14b16-14--12------------------------------------------------------------------------------|
|----------------------------------------------------------------------------------------------|
|----------------------------------------------------------------------------------------------|
|----------------------------------------------------------------------------------------------|


|--------------------------------------|
|--------------------------------------|
|-----------55555555-77777777-44444444-|
|--55555555-55555555-77777777-44444444-|
|--55555555-33333333-55555555-22222222-|
|--33333333----------------------------|

|------------------------------------------|
|------------------------------------------|
|-----------55555555-7777-9999-10-10-10-10-|
|--55555555-55555555-7777-9999-10-10-10-10-|
|--55555555-33333333-5555-7777-8--8--8--8--|
|--33333333--------------------------------|

(Note: I only put spaces on it, it is continious like the first one... if I didnt put
the spaces it would  look like this:

(|-10101010---|) <----|
(|-10101010---|) <----|
(|-8888-------|) <----| disregard this!!



|----------------------|
|----------------------|
|----------------------|
|--10-10-10-10-9999999-|
|--10-10-10-10-9999999-|
|--8--8--8--8--7777777-|

repeat the chorus tabs for the end....
solo in the end would be in version 3
remember subscribe at GSOSBand's page in youtube
Tap to rate this tab
# A B C D E F G H I J K L M N O P Q R S T U V W X Y Z