Song name
# A B C D E F G H I J K L M N O P Q R S T U V W X Y Z

Miku Hatsune - Calc tab

Some parts taken from a Guitar Pro Tablature tabbed by Lokyin24, and lyrics included

Leave comments below and any criticism and/or errors you find as well! thank you!

music/lyrics/arrangement: ジミーサムP (OneRoom)
VOCALOID: Hatsune Miku (初音ミク)
Song: 「Calc.」
Tabbed by: Kai07
Song link
http://www.youtube.com/watch?v=ko0OD7QVSJA
http://www.nicovideo.jp/watch/sm12050471

Notation:
h - Hammer on
p - Pull off
. - Palm Mute
t - tap


Intro melody:
e|-------16----14----------| x4
B|-12-14----14----14-11-14-|
G|-------------------------|
D|-------------------------|
A|-------------------------|
E|-------------------------|

Main Riff:
e|-------------------------------------------| x3
B|-------------------------------------------|
G|-11-11-11-11-11-11-11-11--6-6-6-6-6-6-6-6--|
D|-------------------------------------------|
A|--9--9--9--9--9--9--9--9--4-4-4-4-4-4-4-4--|
E|-------------------------------------------|

e|-------------------------------------------------| 
B|-------------------------------------------------|
G|-13-13-13-13-13-13-13-13-11-11-11-11-11-11-11-11-|
D|-------------------------------------------------|
A|-11-11-11-11-11-11-11-11--9--9--9--9--9--9--9--9-|
E|-------------------------------------------------|

Verse 1

e|----------------|----------------|-----------------|-------------------------|
B|----------------|----------------|-----------------|-------------------------|
G|----------------|----------------|-----------------|-------------------------|
D|-9-----9-----9--|-8-----8-----8--|-11----11----11--|-13-------13-------13----|
A|-9-----9-----9--|-9-----9-----9--|-11----11----11--|-13-------13-------13----|
E|-7-7-7-7-7-7-7-7|-6-6-6-6-6-6-6-6|--9-9-9-9-9-9-9-9|-11-11-11-11-11-11-11-11-|
     . .   . .   .    . .   . .   .     . .   . .   .      .  .     .  .     .

e|----------------|----------------|-----------------|-----------------|
B|----------------|----------------|-----------------|-----------------|
G|----------------|----------------|-----------------|-11------10------|
D|-9-----9-----9--|-8-----8-----8--|-11----11----11--|-11------11------|
A|-9-----9-----9--|-9-----9-----9--|-11----11----11--|--9-9-9-9-8-8-8-8|
E|-7-7-7-7-7-7-7-7|-6-6-6-6-6-6-6-6|--9-9-9-9-9-9-9-9|-----------------|
     . .   . .   .    . .   . .   .     . .    . .        . . .   . . .

       
e|-------------------------------------------------|X3
B|-14-------12-------11-------12-------11----------|
G|----11-11----11-11----11-11----11-11----11-13-11-|
D|-------------------------------------------------|
A|-------------------------------------------------|
E|-------------------------------------------------|
       .  .     .  .     .  .     .  .     .     .

e|------------------------------------------------|
B|------------------------------------------------|
G|--8-8-8-8-8-8-8-8--6----------------------------|
D|------------------------------------------------|
A|--6-6-6-6-6-6-6-6--4----------------------------|
E|------------------------------------------------|



surechigai wa kekkyoku unmei de
subete wa sujigaki doori datte
kanashimi wo magirawaseru hodo
boku wa tsuyoku nai kara
hajikidashita kotae no subete ga
hitotsu futatsu gisei wo tomo natte
mata ippo fumidasu yuuki wo ubaitotte yuku


Chorus:

e|------------------|-----------------|-----------------|-----------------|x4
B|------------------|-----------------|-----------------|-----------------|
G|------------------|-----------------|-----------------|-----------------|
D|--9-9-9-9-9-9-9-9-|-8-8-8-8-8-8-8-8-|-6-6-6-6-6-6-6-6-|-4-4-4-4-4-4-4-4-|
A|--9-9-9-9-9-9-9-9-|-9-9-9-9-9-9-9-9-|-6-6-6-6-6-6-6-6-|-4-4-4-4-4-4-4-4-|
E|--7-7-7-7-7-7-7-7-|-7-6-6-6-6-6-6-6-|-4-4-4-4-4-4-4-4-|-2-2-2-2-2-2-2-2-|

Fill (play after x1 only)

e|-------------|
B|-------------|
G|-------------|
D|-4--6--7--8--|
A|-4--6--8--9--|
E|-2--4--5--6--|


itsuka kimi ni sasageta uta
ima ja kanashii dake no ai no uta
kaze ni fukare tonde yuke
bokura ga deaeta ano natsu no hi made


Post-Chorus/Main Riff:
e|-------------------------------------------| x3
B|-------------------------------------------|
G|-11-11-11-11-11-11-11-11--6-6-6-6-6-6-6-6--|
D|-------------------------------------------|
A|--9--9--9--9--9--9--9--9--4-4-4-4-4-4-4-4--|
E|-------------------------------------------|

e|---------------------------------------------| 
B|---------------------------------------------|
G|-13-13-13-13-13-13-13-13--15---16---17---18--|
D|---------------------------------------------|
A|-11-11-11-11-11-11-11-11--13---14---15---16--|
E|---------------------------------------------|

e|-------------------------------------------| x3
B|-------------------------------------------|
G|-11-11-11-11-11-11-11-11--6-6-6-6-6-6-6-6--|
D|-------------------------------------------|
A|--9--9--9--9--9--9--9--9--4-4-4-4-4-4-4-4--|
E|-------------------------------------------|

e|-------------------------------------------------| 
B|-------------------------------------------------|
G|-13-13-13-13-13-13-13-13-11-11-11-11-11-11-11-11-|
D|-------------------------------------------------|
A|-11-11-11-11-11-11-11-11--9--9--9--9--9--9--9--9-|
E|-------------------------------------------------|

Verse 2:

e|------------------| x8
B|------------------|
G|------------------|
D|------------------|
A|------------------|
E|------------------|



e|-------------------------------------------------|X3
B|-14-------12-------11-------12-------11----------|
G|----11-11----11-11----11-11----11-11----11-13-11-|
D|-------------------------------------------------|
A|-------------------------------------------------|
E|-------------------------------------------------|
       .  .     .  .     .  .     .  .     .     .

e|------------------------------------------------|
B|------------------------------------------------|
G|--8-8-8-8-8-8-8-8--6----------------------------|
D|------------------------------------------------|
A|--6-6-6-6-6-6-6-6--4----------------------------|
E|------------------------------------------------|

meguriai mo kekkyoku unmei de
subete wa sujigaki doori datte
tsugouyoku kangaeraretara
sabishiku wa nai no ka na
hajikidashita kotae no subete ga
hitotsu futatsu mujun wo tomonatte
mukou gawa he to tsudzuku michi wo keshisatte yuku



Play Chorus



Solo:

e|-------------------------------------------------------------------------|
B|----------------9-------12-11~~~-9---------------------------------------|
G|-------8-11-------11~~~------------11~~~~-8------------------------------|
D|--9-11------9-9-----------------------------11~~~~~-8--------------------|
A|------------------------------------------------------11~~~~-13--9~~~~~--|
E|-------------------------------------------------------------------------|
              . .

                                     t      t      t    t      t      t  |
e|-----------------------------7-9-11p7h9-11p7h9-11p9-13p7h9-13p7h9-13p9-|
B|---------11-----9------------------------------------------------------|
G|-------8----------11~~~-8----------------------------------------------|
D|--9-11------9-9-----------11-------------------------------------------|
A|-----------------------------------------------------------------------|
E|-----------------------------------------------------------------------|
              . .

  t      t      t    t      t      t
-14p7h9-14p7h9-14p9-16p7h9-16p7h9-16/|
-------------------------------------|
-------------------------------------|
-------------------------------------|
-------------------------------------|
-------------------------------------|

e|-------------------------------------------| x3
B|-------------------------------------------|
G|-11-11-11-11-11-11-11-11--6-6-6-6-6-6-6-6--|
D|-------------------------------------------|
A|--9--9--9--9--9--9--9--9--4-4-4-4-4-4-4-4--|
E|-------------------------------------------|

e|-------------------------------------------------| 
B|-------------------------------------------------|
G|-13-13-13-13-13-13-13-13-11-11-11-11-11-11-11-11-|
D|-------------------------------------------------|
A|-11-11-11-11-11-11-11-11--9--9--9--9--9--9--9--9-|
E|-------------------------------------------------|


Bridge:

e|------------------| x7
B|------------------|
G|------------------|
D|------------------|
A|------------------|
E|------------------|

e|------------------|
B|------------------|
G|------------------|
D|--4-4-------------|
A|--4-4-------------|
E|--2-2-------------|

kako mo mirai mo nakunareba
boku mo jiyuu ni tobitateru ka na
kanjou hitotsu keseru no nara
 suki  o keseba raku ni nareru ka na


Ending Chorus:

e|------------------|-----------------|-----------------|-----------------|
B|------------------|-----------------|-----------------|-----------------|
G|------------------|-----------------|-----------------|-----------------|
D|--9-9-9-9-9-9-9-9-|-8-8-8-8-8-8-8-8-|-6-6-6-6-6-6-6-6-|-4-4-4-4-4-4-4-4-|
A|--9-9-9-9-9-9-9-9-|-9-9-9-9-9-9-9-9-|-6-6-6-6-6-6-6-6-|-4-4-4-4-4-4-4-4-|
E|--7-7-7-7-7-7-7-7-|-7-6-6-6-6-6-6-6-|-4-4-4-4-4-4-4-4-|-2-2-2-2-2-2-2-2-|

e|------------------|-----------------|-----------------|-----------------|-------------|
B|------------------|-----------------|-----------------|-----------------|-------------|
G|------------------|-----------------|-----------------|-----------------|-------------|
D|--9-9-9-9-9-9-9-9-|-8-8-8-8-8-8-8-8-|-6-6-6-6-6-6-6-6-|-4-4-4-4-4-4-4-4-|-4--6--7--8--|
A|--9-9-9-9-9-9-9-9-|-9-9-9-9-9-9-9-9-|-6-6-6-6-6-6-6-6-|-4-4-4-4-4-4-4-4-|-4--6--8--9--|
E|--7-7-7-7-7-7-7-7-|-7-6-6-6-6-6-6-6-|-4-4-4-4-4-4-4-4-|-2-2-2-2-2-2-2-2-|-2--4--5--6--|

e|------------------|-----------------|-----------------|-----------------|
B|------------------|-----------------|-----------------|-----------------|
G|------------------|-----------------|-6-6-6-6-7-7-7-7-|-8-8-8-8-6-6-6-6-|
D|--9-9-9-9-9-9-9-9-|-8-8-8-8-8-8-8-8-|-6-6-6-6-7-7-7-7-|-8-8-8-8-6-6-6-6-|
A|--9-9-9-9-9-9-9-9-|-9-9-9-9-9-9-9-9-|-4-4-4-4-5-5-5-5-|-6-6-6-6-4-4-4-4-|
E|--7-7-7-7-7-7-7-7-|-7-6-6-6-6-6-6-6-|-----------------|-----------------|

e|------------------|-----------------|-----------------|------------------|
B|------------------|-----------------|-----------------|------------------|
G|------------------|-----------------|-----------------|------------------|
D|--6-6-6-6-6-6-6-6-|-8-8-8-8-8-8-8-8-|-9-9-9-9-9-9-9-9-|-11-(11)\---------|
A|--6-6-6-6-6-6-6-6-|-9-9-9-9-9-9-9-9-|-9-9-9-9-9-9-9-9-|-11-(11)\---------|
E|--4-4-4-4-4-4-4-4-|-6-6-6-6-6-6-6-6-|-7-7-7-7-7-7-7-7-|--9-( 9)\---------|

kimi no mimi wo , me wo , kokoro wo
toorinuketa mono subete wo
itsuka shiru koto ga dekitara
tsugi wa chanto kimi wo aiseru ka na



Outro:

e|-------------------------------------------| x3
B|-------------------------------------------|
G|-11-11-11-11-11-11-11-11--6-6-6-6-6-6-6-6--|
D|-------------------------------------------|
A|--9--9--9--9--9--9--9--9--4-4-4-4-4-4-4-4--|
E|-------------------------------------------|

e|---------------------------------------------| 
B|---------------------------------------------|
G|-13-13-13-13-13-13-13-13--15---16---17---18--|
D|---------------------------------------------|
A|-11-11-11-11-11-11-11-11--13---14---15---16--|
E|---------------------------------------------|

e|-------------------------------------------|x3
B|-------------------------------------------|
G|-11-11-11-11-11-11-11-11--6-6-6-6-6-6-6-6--|
D|-------------------------------------------|
A|--9--9--9--9--9--9--9--9--4-4-4-4-4-4-4-4--|
E|-------------------------------------------|

< < < < < < SLOWDOWN   GRADUALLY > > > > > > > 
e|----------------|--------------------------| 
B|----------------|--------------------------|
G|-13-13-13-13-13-|-15-15-15-15-13-13-13-13--|
D|----------------|--------------------------|
A|-11-11-11-11-11-|-13-13-13-13-11-11-11-11--|
E|----------------|--------------------------|


e|------------------|
B|------------------|
G|-11~~~~~~~~~~~~~~~|
D|------------------|
A|--9~~~~~~~~~~~~~~~|
E|------------------|
Tap to rate this tab
# A B C D E F G H I J K L M N O P Q R S T U V W X Y Z