Song name
# A B C D E F G H I J K L M N O P Q R S T U V W X Y Z

Miku Hatsune - Hirari Hirari tab

Hirari Hirari by Tamaazu-P feat. Hatsune Miku


Play clean with heavy reverb

Intro

|----------------------|---------------------|
|--------12--12-15-12--|-------12--12-15-12--|
|-/11-14---------------|-11-14---------------|
|----------------------|---------------------|
|----------------------|---------------------|
|----------------------|---------------------|


|-----------------------------|--------------------|
|--------12----12-15-14-15-14-|-12------------11---|
|-/11-14----14----------------|----14-11--14-------|
|-----------------------------|--------------------|
|-----------------------------|--------------------|
|-----------------------------|--------------------|


|---------------------|--------------14-----|
|-------12--12-15-12--|-------12--12----12--|
|-11-14---------------|-11-14---------------|
|---------------------|---------------------|
|---------------------|---------------------|
|---------------------|---------------------|


|-------------------------|-------^14-------|
|-------12----12----12----|-12----^17-------|
|-11-14----14----11----14-|----11-^16-------|
|-------------------------|-------^16-------|
|-------------------------|-----------------|
|-------------------------|-----------------|


|--------------------|------------------|--------------|----------------|
|--------------10----|------------------|--------------|----------------|
|-11---11-9-11-------|----------------9-|-11--11--9----|-----9----------|
|-----------------11-|-12--9----9--12---|--------------|-12----12-11----|
|--------------------|-------12---------|--------------|----------------|
|--------------------|------------------|--------------|----------------|


|--------------------|-----------------|---------------|-------|
|--------------10----|-----------------|---------------|-------|
|-11---11-9-11-------|----9------------|-----9--11-----|-------|
|-----------------11-|-12---9-7-9--11--|-12---------7--|-/9----|
|--------------------|-----------------|---------------|-------|
|--------------------|-----------------|---------------|-------|


|----------------------|------------------|----------------|---------------|
|-12-------------------|------------------|------------10--|---------------|
|----11-11-9-9-11----9-|------------------|----------------|-11----9--11---|
|-----------------12---|-11-12-9-7-9--9-7-|-9--12--11------|---------------|
|----------------------|------------------|----------------|---------------|
|----------------------|------------------|----------------|---------------|


|-14----------------------|-10-12-----------------|
|----12-12-10-10-12----10-|-------12-10-12-----10-|
|-------------------11----|-----------------11----|
|-------------------------|-----------------------|
|-------------------------|-----------------------|
|-------------------------|-----------------------|


|------------------------|--------------|
|-12--12-12-12-12-/14-12-|-11--12--/14--|
|------------------------|--------------|
|------------------------|--------------|
|------------------------|--------------|
|------------------------|--------------|


Verse

|---------------------------|-------------------|
|----10-/12--12-15-14-15-14-|-12----------------|
|-11------------------------|----14-11--14\--9--|
|---------------------------|-------------------|
|---------------------------|-------------------|
|---------------------------|-------------------|


|------------------------|-------10----12----14---|
|-----12--12-15-14-15-14-|-12-10----10----10------|
|-11---------------------|------------------------|
|------------------------|------------------------|
|------------------------|------------------------|
|------------------------|------------------------|


|---------------------------|-------------------|
|----10-/12--12-15-14-15-14-|-12-10-------------|
|-11------------------------|-------11--14\--9--|
|---------------------------|-------------------|
|---------------------------|-------------------|
|---------------------------|-------------------|


|---------------------|-----------------|
|-----12-10-12--12-10-|-12--12-10-12----|
|-11------------------|-----------------|
|---------------------|-----------------|
|---------------------|-----------------|
|---------------------|-----------------|


|---------------------------|-------------------|
|----10-/12--12-15-14-15-14-|-12----------------|
|-11------------------------|----14-11--14\--9--|
|---------------------------|-------------------|
|---------------------------|-------------------|
|---------------------------|-------------------|


|------------------------|-------10----12----14---|
|-----12--12-15-14-15-14-|-12-10----10----10------|
|-11---------------------|------------------------|
|------------------------|------------------------|
|------------------------|------------------------|
|------------------------|------------------------|


|------------------------|-10-12-14--12-14-12-10--|
|----10-/12--12-15-14----|------------------------|
|-11------------------11-|------------------------|
|------------------------|------------------------|
|------------------------|------------------------|
|------------------------|------------------------|


|-14-----------14-------|----14-------|
|-----12-10-12----12-10-|-12----12----|
|-----------------------|-------------|
|-----------------------|-------------|
|-----------------------|-------------|
|-----------------------|-------------|


Solo

|---------------------------|------------------|
|-12\-10-10-/12-12\-7-7-/10-|-10\-5-5-7-0--0-2-|
|---------------------------|------------------|
|---------------------------|------------------|
|---------------------------|------------------|
|---------------------------|------------------|


|----------------|---------------|----------10----10-14-12---|
|-3--/7--5--/10--|-12----(12)----|-12-10-12----12------------|
|----------------|---------------|---------------------------|
|----------------|---------------|---------------------------|
|----------------|---------------|---------------------------|
|----------------|---------------|---------------------------|


|-10----10--------------|-------------------------------|
|----14----12-14----12--|-12-12-12-12-14-12-11-------11-|
|----------------11-----|----------------------11-13----|
|-----------------------|-------------------------------|
|-----------------------|-------------------------------|
|-----------------------|-------------------------------|


|-------------------------11-------11-12----11-12-|
|-12----11-12-14-11-12-14----12-14-------14-------|
|----13-------------------------------------------|
|-------------------------------------------------|
|-------------------------------------------------|
|-------------------------------------------------|


|-14-12-10-------14-14-12-14--|
|----------12-----------------|
|-------------11--------------|
|-----------------------------|
|-----------------------------|
|-----------------------------|


Verse

|---------------------------|-------------------|
|----10-/12--12-15-14-15-14-|-12----------------|
|-11------------------------|----14-11--14\--9--|
|---------------------------|-------------------|
|---------------------------|-------------------|
|---------------------------|-------------------|


|------------------------|-------10----12----14---|
|-----12--12-15-14-15-14-|-12-10----10----10------|
|-11---------------------|------------------------|
|------------------------|------------------------|
|------------------------|------------------------|
|------------------------|------------------------|


|---------------------------|-------------------|
|----10-/12--12-15-14-15-14-|-12-10-------------|
|-11------------------------|-------11--14\--9--|
|---------------------------|-------------------|
|---------------------------|-------------------|
|---------------------------|-------------------|


|---------------------|-----------------|
|-----12-10-12--12-10-|-12--12-10-12----|
|-11------------------|-----------------|
|---------------------|-----------------|
|---------------------|-----------------|
|---------------------|-----------------|


|---------------------------|-------------------|
|----10-/12--12-15-14-15-14-|-12----------------|
|-11------------------------|----14-11--14\--9--|
|---------------------------|-------------------|
|---------------------------|-------------------|
|---------------------------|-------------------|


|------------------------|-------10----12----14---|
|-----12--12-15-14-15-14-|-12-10----10----10------|
|-11---------------------|------------------------|
|------------------------|------------------------|
|------------------------|------------------------|
|------------------------|------------------------|


|------------------------|-10-12-14--12-14-12-10--|
|----10-/12--12-15-14----|------------------------|
|-11------------------11-|------------------------|
|------------------------|------------------------|
|------------------------|------------------------|
|------------------------|------------------------|


|-14-----------14-------|----14-------|
|-----12-10-12----12-10-|-12----12----|
|-----------------------|-------------|
|-----------------------|-------------|
|-----------------------|-------------|
|-----------------------|-------------|


Outro

|----------14----------14-|-(14)-----|
|-12-10-12----12-10-12----|----------|
|-------------------------|----------|
|-------------------------|----------|
|-------------------------|----------|
|-------------------------|----------|
Tap to rate this tab
# A B C D E F G H I J K L M N O P Q R S T U V W X Y Z