Song name
# A B C D E F G H I J K L M N O P Q R S T U V W X Y Z

Milburn - Storm In A Tea Cup tab

----------------------------------------------------------------------------
			     STORM IN A TEACUP - Milburn
----------------------------------------------------------------------------
Tabbed by: jimmyjazz
Email:

Tuning:EADGBe

Intro:

e|-------------------------------------------------------------------------|
B|-------------------------------------------------------------------------|
G|-----------------------------9-------------------------------/11-11-11-9-|
D|--7---7--/11--9--7---7--/11-----11--9--7---7--/11--9--7---7--------------|
A|-------------------------------------------------------------------------|
E|-------------------------------------------------------------------------|

e|-------------------------------------------------------------------------|
B|---------------------------------------------------7-7--7-7--5-----------|
G|---------------------------------------------------7-7--7-7--6-----------|
D|--7---7--/11--9--7---7----------6--7---7--/11--9---7-7--7-7--6-----------|
A|------------------------9--7--9--------------------5-5--5-5--4-----------|
E|-------------------------------------------------------------------------|

Verse (chords):

A  D C#m x8


Verse (lead):

e|-------------------------------------------------------------------------|
B|-------------------------------------------------------------------------|
G|-----------9------9-----------11-11--11-9--9-------------9------9--------|
D|-7-----/11----11----11-9-7----12-12--12-11-11--7--7--/11----11----11-9-7-|
A|-------------------------------------------------------------------------|
E|-------------------------------------------------------------------------|

e|------------|
B|------------|
G|------------|
D|--7---------|
A|----9-7-----|
E|------------|

e|-------------------------------------------------------------------------|
B|-------------------------------------------------------------------------|
G|-----------------------------9-------------------------------/11-11-11-9-|
D|--7---7--/11--9--7---7--/11-----11--9--7---7--/11--9--7---7--------------|
A|-------------------------------------------------------------------------|
E|-------------------------------------------------------------------------|

e|-------------------------------------------------------------------------|
B|---------------------------------------------------7-7--7-7--5-----------|
G|---------------------------------------------------7-7--7-7--6-----------|
D|--7---7--/11--9--7---7----------6--7---7--/11--9---7-7--7-7--6-----------|
A|------------------------9--7--9--------------------5-5--5-5--4-----------|
E|-------------------------------------------------------------------------|

Chorus (chords):

F#m  C#m  D  D  x4

Chorus (lead):

e|------------------------------------------------------------------|
B|------------------------------------------------------------------|
G|------------------------------------------------------------------|
D|-----------------------------4------------------------------------|
A|-4--4--7-4-----4--7-4------4---7-5-4-----4--4--7-4-----4--7-4-----|
E|-----------5----------5---------------7------------5----------5---|

2nd Half of 2nd verse (1:29) (lead):

e|-----------------------------------------------------------|
B|-----------------------------------------------------------|
G|-----------------------------------------------------------|
D|-7----7-------7----7---------------------------------------|
A|--------9--7---------9--7-------------7---------------7----|
E|---------------------------9----9-9-9---9-7---7-7-7-9------|

e|------------------------------------------------------------------|
B|------------------------------------------------10-10--10-10--9---|
G|------------------------------------------------11-11--11-11--9---|
D|-7----7-------7----7-------/11-11-11-11-11-9--9-12-12--12-12--11--|
A|--------9--7---------9--7-----------------------------------------|
E|------------------------------------------------------------------|

solo (2:07 - 2:32)

e|------------------------------------------------------|
B|------------------------------------------------------|
G|------------------------------------------------------|
D|-7------7-9-----9-4-----4-----4-7-----7-9----9-4------|
A|------------------------------------------------------|
E|------------------------------------------------------|

e|-----------------------------------------------------------------------|
B|------------------------7-----7---10-9-7-10-9-7-10-9-7-10-9-7-10-9-7---|
G|--------6-----6-9---6-9-----9---9------------------------------------9-|
D|--9-7-9-----9----------------------------------------------------------|
A|-----------------------------------------------------------------------|
E|-----------------------------------------------------------------------|

e|-9-7----9-7----9-7----9-7----9-7-------5-5-5-5-5-4------------------|
B|-----10-----10-----10-----10-----10----7-7-7-7-7-5----7-7-7-7-7-5---|
G|---------------------------------------7-7-7-7-7-6----7-7-7-7-7-6---|
D|------------------------------------------------------7-7-7-7-7-6---|
A|--------------------------------------------------------------------|
E|--------------------------------------------------------------------|
Tap to rate this tab
# A B C D E F G H I J K L M N O P Q R S T U V W X Y Z