Song name
# A B C D E F G H I J K L M N O P Q R S T U V W X Y Z

Milburn - What About Next Time tab

This wasnt tabbed and its a great little intro to the song so i thought i would add one 
I am sure its correct . I will tab the whole song when i have got some spare time

e|-------------------------|------------------------|
B|-----9--6----------------|----9--6----------------|
G|-----------8--5----------|----------8--5----------|  X2
D|--6--------------8--6--8-|-6--------------8--6--8-|
A|-------------------------|------------------------|
E|-------------------------|------------------------|


e|-------------------------|-------------------------|
B|--6--6-------------------|--6--6-------------------|
G|--------8--8--5--5--8--8-|--------8--8--5--5--8--8-|
D|-------------------------|-------------------------|
A|-------------------------|-------------------------|
E|-------------------------|-------------------------|


e|-------------------------|------------------------|
B|-----9--6----------------|----9--6----------------|
G|-----------8--5----------|----------8--5----------|
D|--6--------------8--6--8-|-6--------------8--6--8-|
A|-------------------------|------------------------|
E|-------------------------|------------------------|


e|---------------------|
B|---------------------|
G|--5--8---------------|
D|--------6------------|
A|---------------------|
E|---------------------|
Tap to rate this tab
# A B C D E F G H I J K L M N O P Q R S T U V W X Y Z