Song name
# A B C D E F G H I J K L M N O P Q R S T U V W X Y Z

Milburn - Stockholm Syndrome tab

BAND: Milburn
SONG: Stockholm Syndrome
ALBUM: Well Well Well

TUNING: Standard - E A D G B E


INTRO:

 --------------|
 --------------|
 --------------| x 4
 ---0----------|
 -2---2--------|
 -------2-1-2--|

VERSE ONE:

 --------------|
 --------------|
 --------------| x 16 (listen to the song for when distorted etc)
 ---0----------|
 -2---2--------|
 -------2-1-2--|

BUILD UP:

---------------------------------------------------------------------------|
---------------------------------------------------------------------------|
---------------------------------------------------------------------------|
---0-----------4-----------0-------------0-5-7-5-4----0-5-7-5-4--9-9-9-7---|
-2---2-------5---5-------2---2----4----2------------2------------9-9-9-7---|
--------------------------------5---5----------------------------7-7-7-5---|

CHORUS:

-----------------------------------------------------------|
-----------------------------------------------------------|
-----------------------------------------------------------|
-9-----10------9-9-9-7-4--9-9-9-7-4--9-9-9-7-4--9-9-9-7-4--|
-9-x16-10-x16--9-9-9-7-4--9-9-9-7-4--9-9-9-7-4--9-9-9-7-4--|
-7-----12------7-7-7-5-2--7-7-7-5-2--7-7-7-5-2--7-7-7-5-2--|


VERSE TWO:

 --------------|
 --------------|
 --------------| x 12
 ---0----------|
 -2---2--------|
 -------2-1-2--|

--------------------------------------------------|
--------------------------------------------------|
--------------------------------------------------|
-----3-----------3---------0-----------0----------| x 2
-2-5---5-2---2-5---5-2---2---2-------2---2--------|
-----------5-----------5-------2-1-2-------2-1-2--|

BUILD UP:

---------------------------------------------------------------------------|
---------------------------------------------------------------------------|
---------------------------------------------------------------------------|
---0-----------4-----------0-------------0-5-7-5-4----0-5-7-5-4--9-9-9-7---|
-2---2-------5---5-------2---2----4----2------------2------------9-9-9-7---|
--------------------------------5---5----------------------------7-7-7-5---|

CHORUS:

-----------------------------------------------------------|
-----------------------------------------------------------|
-----------------------------------------------------------|
-9-----10------9-9-9-7-4--9-9-9-7-4--9-9-9-7-4--9-9-9-7-4--|
-9-x16-10-x16--9-9-9-7-4--9-9-9-7-4--9-9-9-7-4--9-9-9-7-4--|
-7-----12------7-7-7-5-2--7-7-7-5-2--7-7-7-5-2--7-7-7-5-2--|

BRIDGE:

------------------------------------|
------------------------------------|
----------11------------------------|
-9--------11-(delay)---7-(tremolo)--|
-9-(hold)---9-----------------------|
-7----------------------------------|

-------------------------|
-------------------------|
-------7-7-7-6-6-6-5-5-5-|   x3
-9-9-9-------------------|
-------------------------|
-------------------------|

-------------------------|
-------------------------|
-------7-7-7-6-----------|
-9-9-9-------------------|
-------------------------|
-------------------------|

SOLO:

----------------------------------------------------------------|
----------------------------------------------------------------|
----------------------------------------------------------------|
-9------12------------------------------------------------------|
-9-x16--12-x-16---7-7-7-7-7-7-7-7-7-7-5-----7--5----------------|
-7------10------------------------------7-5------5--5-5-7-7-5-3-|

CHORUS:

---------------------------------------------|
---------------------------------------------|
---------------------------------------------|
-9-9-9-7-4--9-9-9-7-4--9-9-9-7-4--9-9-9-7-4--|
-9-9-9-7-4--9-9-9-7-4--9-9-9-7-4--9-9-9-7-4--|
-7-7-7-5-2--7-7-7-5-2--7-7-7-5-2--7-7-7-5-2--|

OUTRO:

------------------------------------------------------|
------------------------------------------------------|
------------------------------------------------------|
-12-7--7-7--7-7--7-7-7-7--7--7-7--x-7/----------------|
-12-7--7-7--7-7--7-7-7-7--7--7-7--x-7/-(slide down)---|
-10-9--9-9--9-9--9-9-9-9--9--9-9--x-9/----------------|
Tap to rate this tab
 
# A B C D E F G H I J K L M N O P Q R S T U V W X Y Z