Song name
# A B C D E F G H I J K L M N O P Q R S T U V W X Y Z

Milburn - December tab

Help us improve GuitareTab! Take a short survey!
Great band. Great song.

Milburn - December:

|---------------------------------------------------------------------------|
|---------------------------------------------------------------------------|
|---------------------------------------------------------------------------|
|----------6--8---------6--8-------6--6--6--4--3--6--6--6--4--3-------------|
|--6--6--9------6--6--9-----------------------------------------------------|
|---------------------------------------------------------------------------|

|---------------------------------------------------------------------------|
|---------------------------------------------------------------------------|
|---------------------------------------------------------------------------|
|--11--11--11--8--8--11--11--11--8------------------4----------------4------|
|-----------------------------------11--9--6--4--6-----6--4--6--4--6---6--4-|
|---------------------------------------------------------------------------|


See what you think...its my first tab Ive done, feedback would be good, hit me up on my 
myspace.

www.myspace.com/legionmusicsheffield
Related for December tab