Song name
# A B C D E F G H I J K L M N O P Q R S T U V W X Y Z

Milburn - Dancing On The Kitchen Floor tab

Milburn

Dancing on the kitchen floor

Tabbed: Dave Mullen


*Intro/Verse 1*

Bass
G|--------------------------------------------------------------|
D|--------------------------------------------------------------|
A|--------------------------------------------------------------|
E|-4--4-2-4--4-2-4-2-4--4-2-4-2-4-2-4--4-2-4-2-0-0-0-0-2-2-2-2--|

Guitar
e|--------------------------------------------------------------|
B|--------------------------------------------------------------|
G|--------------------------------------------------------------|
D|-6--6-4-6--6-4-6-4-6--6-4-6-4-6-4-6--6-4-6-4-2-2-2-2-4-4-4-4--|
A|--------------------------------------------------------------|
E|--------------------------------------------------------------|

Take it back, take it all back
I just want my money back, here we go.
Took it all, took it all off
Took her bleeding trousers off and I know.


*Chorus*

G#
Well darling you've made me smile

B
Even though it's been a while

F#                   E
You always know just how to sway

G#
Well darling now it's getting late

B
Although the boys appreciate

F#                   E
It doesn't mean that it's ok

It's not ok...


*Verse 2*

Bass
G|--------------------------------------------------------------|
D|--------------------------------------------------------------|
A|--------------------------------------------------------------|
E|-4--4-2-4--4-2-4-2-4--4-2-4-2-4-2-4--4-2-4-2-0-0-0-0-2-2-2-2--|

Guitar
e|--------------------------------------------------------------|
B|--------------------------------------------------------------|
G|--------------------------------------------------------------|
D|-6--6-4-6--6-4-6-4-6--6-4-6-4-6-4-6--6-4-6-4-2-2-2-2-4-4-4-4--|
A|--------------------------------------------------------------|
E|--------------------------------------------------------------|

Watch your move, watch your bloody move
You can see him dancing on the kitchen floor
Stop the show, cause we got to go
No we really have to go, can't take no more


*Chorus*


G#
Well darling you've made me smile

B
Even though it's been a while

F#                   E
You always know just how to sway

G#
Well darling now it's getting late

B
Although the boys appreciate

F#                   E
It doesn't mean that it's ok

It's not ok...


*Bridge/solo*

e|--------------------------------------------|
B|--------------------------------------------|
G|-4--6-4-6-8--9-8-9-11-9-8-9-8-6-4-----------|
D|----------------------------------6-4-6-----|
A|--------------------------------------------|
E|--------------------------------------------|
(repeat 3 times)

(4th time play this)
e|------------------------------------------------|
B|------------------------------------------------|
G|-4--6-4-6-8--9-8-9-11-9-8-9-8-6-6b-6b-6b-6r-p4\-|
D|------------------------------------------------|
A|------------------------------------------------|
E|------------------------------------------------|

*Chorus*


G#
Well darling you've made me smile

B
Even though it's been a while

F#                   E
You always know just how to sway

G#
Well darling now it's getting late

B
Although the boys appreciate

F#                   E
It doesn't mean that it's ok

ITS NOT OK!!!


*Outro*

E|-4--4-2-4--4-2-4-2-4--4-2-4-2-4-2-4--4-2-4-2-4~

(Bass and both guitars play this)
Tap to rate this tab
 
# A B C D E F G H I J K L M N O P Q R S T U V W X Y Z