Guitaretab - guitar tabs
Song name
# A B C D E F G H I J K L M N O P Q R S T U V W X Y Z

Milburn - Send In The Boys tab

-------------------------------------------------------------------------------
			     Send In The Boys - Milburn
-------------------------------------------------------------------------------
Tabbed by: kievo	
Email: Kevin_Moyaert@hotmail.com

Tuning: Standard

I tried to tab this out decently, Iíve you have any corrections, please let me know.
As for the solo: Iíve tabbed the solo from the video, itís played a little different
than the song version, but itíll work as well

Guitar 1                                                    (faster and faster)
e|--------------------------------------------------------------------------|
B|-8-8-8-------8-8-8-------8-8-8-----------------8-8-8----------------------|
G|-9-9-9--9----9-9-9--9----9-9-9--9--------------9-9-9--9-------------------|
D|-9-9-9--9----9-9-9--9----9-9-9--9--------------9-9-9--9-------------------|
A|-7-7-7--7----7-7-7--7----7-7-7--7--------------7-7-7--7-------------------|
E|--------------------------------------------------------------------------|

Guitar 2
e|--------------------------------------------------------------------------|
B|--------------------------------------------------------------------------|
G|--------------------------------9-9-9-9-9-9-9-9-9-9-9-9-9-9-9-9-9-9-9-9-9-|
D|--------------------------------9-9-9-9-9-9-9-9-9-9-9-9-9-9-9-9-9-9-9-9-9-|
A|--------------------------------7-7-7-7-7-7-7-7-7-7-7-7-7-7-7-7-7-7-7-7-7-|
E|--------------------------------------------------------------------------|

Guitar 1
e|-----------------------------------------------------------------------|
B|-----------------------------------------------------------------------|
G|-----------------------------------------------------------------------| x2
D|----------------------------------------7-5------5-7-9-----------------|
A|----7-5------7-5--------5-7----7-5---5------8-7-----------7-5------0---|
E|-5------8-5------8-5--8-----5------8-------------------5------8-5--0-3-|

Guitar 1
e|-------------------------------------------------------------------------|
B|-------------------------------------------------------------------------|
G|-------------------------------------------------------------------------| 
D|-----------------------------------------7-5------5-7-9------------------|
A|-----7-5------7-5--------5-7----7-5---5------8-7-------------------------|
E|--5------8-5------8-5--8-----5------8-------------------5553555355535553-|

Guitar 2                             x2                   x2
e|-----------------------------------|--------------------|----------------|
B|-----------------------------------|--------------------|----------------|
G|o---------------------------------o|o------------------o|----------------|
D|o---------------------------------o|o-5-5-5-5-5-5-5-5--o|----------------|
A|--7-7-7-7-7-7-7-7-7-7-7-7-7-7-7-7--|--3-3-3-3-3-3-3-3---|----------------|
E|--5-5-5-5-5-5-5-5-5-5-5-5-5-5-5-5--|--------------------|----------------|


Guitar 2                                 x2
e|---------------------------------------|
B|---------------------------------------|
G|o----------55555555-------------------o|
D|o-77777777-55555555-55555555-22225555-o|
A|--77777777-33333333-55555555-22225555--|
E|--55555555----------33333333-00003333--|

Guitar 2                               Guitar 1
e|------------------------------------------------------------|
B|-------------------------------------(bass intermezzo)------|
G|----------55555555------------------------------------------|
D|-77777777-55555555-5--------22225555-7--------777-----------|
A|-77777777-33333333-5--------22225555-7--------777-------0---|
E|-55555555----------3--------00003333-5--------555-------0-3-|

Guitar 1
e|------------------------------------------------------------------|
B|------------------------------------------------------------------|
G|------------------------------------------------------------------| 
D|----------------------------------------7-5------5-7-9------------|
A|----7-5------7-5--------5-7----7-5---5------8-7-----------7-5-----|
E|-5------8-5------8-5--8-----5------8-------------------5------8-5-|

Guitar 1
e|---------------|
B|---------------|
G|---------------|
D|---------------|
A|-------3-------|
E|-0-3-5---5-3-0-|

Guitar 1
e|-------------------------------------------------------------------------|
B|-------------------------------------------------------------------------|
G|-------------------------------------------------------------------------| 
D|-----------------------------------------7-5------5-7-9------------------|
A|-----7-5------7-5--------5-7----7-5---5------8-7-------------------------|
E|--5------8-5------8-5--8-----5------8-------------------5553555355535553-|
[ Tab from: http://www.guitaretab.com/m/milburn/66160.html ]
Guitar 2                             x2                   x2
e|-----------------------------------|--------------------|----------------|
B|-----------------------------------|--------------------|----------------|
G|o---------------------------------o|o------------------o|----------------|
D|o---------------------------------o|o-5-5-5-5-5-5-5-5--o|----------------|
A|--7-7-7-7-7-7-7-7-7-7-7-7-7-7-7-7--|--3-3-3-3-3-3-3-3---|----------------|
E|--5-5-5-5-5-5-5-5-5-5-5-5-5-5-5-5--|--------------------|----------------|


Guitar 2                                 x2
e|---------------------------------------|
B|---------------------------------------|
G|o----------55555555-------------------o|
D|o-77777777-55555555-55555555-22225555-o|
A|--77777777-33333333-55555555-22225555--|
E|--55555555----------33333333-00003333--|

Guitar 1 & 2                           
e|----------------------------------------|
B|----------------------------------------|
G|----------55555555----------------------|
D|-77777777-55555555-5--------22225555-7--|
A|-77777777-33333333-5--------22225555-7--|
E|-55555555----------3--------00003333-5--|


Guitar 1
e|-------------------------------------------------|
B|-------------------------------------------------|
G|-------------------------------------------------|
D|-------------------------------------5---5-7-5---|
A|-------5-6-7-------7-6-5-------5-6-7---7-------7-|
E|-5-5-5-------5-5-5-------5-5-5-------------------|


Guitar 1
e|-------------------------------------------------|
B|-------------------------------------------------|
G|-------------------------------------------------|
D|-------------------------------------5---5-7-5---|
A|-------5-6-7-------7-6-5-------5-6-7---7-------7-|
E|-5-5-5-------5-5-5-------5-5-5-------------------|

Guitar 2
e|-------------------------------------------------|
B|-------------------------------------------------|
G|-------------------------------------7575757b-75-|
D|-------------------------------------------------|
A|-7-7-7-------7-7-7-------7-7-7-------------------|
E|-5-5-5-------5-5-5-------5-5-5-------------------|


Guitar 1
e|-------------------------------------------------|
B|-------------------------------------------------|
G|-------------------------------------------------|
D|-------------------------------------5---5-7-5---|
A|-------5-6-7-------7-6-5-------5-6-7---7-------7-|
E|-5-5-5-------5-5-5-------5-5-5-------------------|


Guitar 2 (solo)
e|-------------------------------------------------------|
B|-------------------------------------------------------|
G|---------------7----7-7b-7----7-------------------7-7b-|
D|-7-7-7-10-7-10---10--------10---10-7-10-7----7-10------|
A|------------------------------------------10-----------|
E|-------------------------------------------------------|


Guitar 1
e|------------------------------------------------------------------------|
B|------------------------------------------------------------------------|
G|------------------------------------------------------------------------|
D|----------55555555----------55555555-7777777777777777-5555555555555555--|
A|-77777777-33333333-77777777-33333333-5555555555555555-3333333333333333--|
E|-55555555----------55555555---------------------------------------------|



Guitar 2 (solo)
e|---------------------------------------------------------------------------|
B|---------------------------------------------------------------------------|
G|-7b888888888888r7777-7-5---5-------5-7-5---5---------------5-----5---5-----|
D|-------------------------7---7-5-7-------7---7-5---5-7-777---7-7---7---7-7-|
A|-------------------------------------------------7-------------------------|
E|---------------------------------------------------------------------------|

e|-------------------------------------|
B|-------------------------------------|
G|-5---5-------------------------------|
D|---7---7-77-55----55-----------------|
A|---------------77----77-55-33--------|
E|------------------------------5-3-5--|



Guitar 1 & 2                             x2
e|---------------------------------------|
B|---------------------------------------|
G|o----------55555555-------------------o|
D|o-77777777-55555555-55555555-22225555-o|
A|--77777777-33333333-55555555-22225555--|
E|--55555555----------33333333-00003333--|

Guitar 1 & 2                           
e|----------------------------------------|
B|----------------------------------------|
G|----------55555555----------------------|
D|-77777777-55555555-5--------22225555-7--|
A|-77777777-33333333-5--------22225555-7--|
E|-55555555----------3--------00003333-5--|


Guitar 1 & 2  x3
e|------------|-----|
B|------------|-----|
G|o----------o|-----|
D|o----------o|-----|
A|-----7-5----|-----|
E|--5------8--|--5--| 

| b  bend
| r  release bend
===============================================================================

Related for Send In The Boys tab