Song name
# A B C D E F G H I J K L M N O P Q R S T U V W X Y Z

Milburn - Lipstick Lickin tab

Intro:
e|--------------------------------------------------------------------------|
B|--3--3--3-1---3--3-3-3-3-1---3--3--3-1---3--3-3-3-3-1---3--3--3-1---------|
G|------------0--------------0-----------0--------------0-----------0-------|
D|--------------------------------------------------------------------------|
A|--------------------------------------------------------------------------|
E|--------------------------------------------------------------------------|

e|--------------------------------------------------------------------------|
B|--3--3-3-3-3-1---3--3--3-1------------------------------------------------|
G|---------------0-----------2bu--0-----------------------------------------|
D|--------------------------------------------------------------------------|
A|--------------------------------------------------------------------------|
E|--------------------------------------------------------------------------|

Powerchord Riff:                                     x2
e|--------------------------------------------------------------------------|
B|--------------------------------------------------------------------------|
G|-----------------7-7-7-7----------------------5---------------------------|
D|--5--5-5--5-5-5--7-7-7-7--8-8-8-8--5--5-5--5--5--5------------------------|
A|--5--5-5--5-5-5--5-5-5-5--8-8-8-8--5--5-5--5--3--5------------------------|
E|--3--3-3--3-3-3-----------6-6-6-6--3--3-3--3-----3------------------------|

Verse:
G               D                Bb            C
The lights they start to flicker movin' in the sky
G                       D                Bb              C
And the lips with their lipstick lickin' seem to pass me by, oh my
G           D                  Bb                       C
The big boy with the headlight glare says we're tellin' lies
G                D
And I know we're in for it
       Bb
When I see my good friend Johnny go and smack him right between the eyes

Chorus:
Bb                  D                    G(high)            Bb
But the thoughts of you in my mind knows I'm never gonna go wrong
D                C                       G                 D
Cause you and me both, we're singing the same song
Bb                D                     G(high)              Bb
I can tell by the look in your eye that we're never gonna go wrong
         D      C
We'll go on and on and on... 

Powerchord Riff:
e|--------------------------------------------------------------------------|
B|--------------------------------------------------------------------------|
G|-----------------7-7-7-7----------------------5---------------------------|
D|--5--5-5--5-5-5--7-7-7-7--8-8-8-8--5--5-5--5--5--5------------------------|
A|--5--5-5--5-5-5--5-5-5-5--8-8-8-8--5--5-5--5--3--5------------------------|
E|--3--3-3--3-3-3-----------6-6-6-6--3--3-3--3-----3------------------------|

Verse:
G           D                  Bb                       C
The big boy with the headlight glare says we're tellin' lies
G                D
And I know we're in for it
       Bb
When I see my good friend Johnny go and smack him right between the eyes

Chorus:
Bb                  D                    G(high)            Bb
But the thoughts of you in my mind knows I'm never gonna go wrong
D                C                       G                 D
Cause you and me both, we're singing the same song
Bb                D                     G(high)              Bb
I can tell by the look in your eye that we're never gonna go wrong
         D      C
We'll go on and on and on... 

Riff:
e|--------------------------------------------------------------------------|
B|--3--3--3-1---3--3-3-3-3-1---3--3--3-1---3--3-3-3-3-1---3--3--3-1---------|
G|------------0--------------0-----------0--------------0-----------0-------|
D|--------------------------------------------------------------------------|
A|--------------------------------------------------------------------------|
E|--------------------------------------------------------------------------|

e|--------------------------------------------------------------------------|
B|--3--3-3-3-3-1---3--3--3-1------------------------------------------------|
G|---------------0-----------2bu--0-----------------------------------------|
D|--------------------------------------------------------------------------|
A|--------------------------------------------------------------------------|
E|--------------------------------------------------------------------------|

Powerchord Riff:                                    x2
e|--------------------------------------------------------------------------|
B|--------------------------------------------------------------------------|
G|-----------------7-7-7-7----------------------5---------------------------|
D|--5--5-5--5-5-5--7-7-7-7--8-8-8-8--5--5-5--5--5--5------------------------|
A|--5--5-5--5-5-5--5-5-5-5--8-8-8-8--5--5-5--5--3--5------------------------|
E|--3--3-3--3-3-3-----------6-6-6-6--3--3-3--3-----3------------------------|

Chorus:
Bb                  D                    G(high)            Bb
But the thoughts of you in my mind knows I'm never gonna go wrong
D                C                       G                 D
Cause you and me both, we're singing the same song
Bb                D                     G(high)              Bb
I can tell by the look in your eye that we're never gonna go wrong
         D      C
We'll go on and on and on... 

Ghorus Lead Part:
e|-------------------------1--3--3-3-3-1------------------------------------|
B|-------------1--3--3-3-3---------------3------3-3--4-3--1--1-1--3-1-------|
G|--3--3-3--3------------------------------3--------------------------3--0--|
D|--------------------------------------------------------------------------|
A|--------------------------------------------------------------------------|
E|--------------------------------------------------------------------------|

e|--------1----------|---------------------1--3--3-3-3-1--------------------|
B|--1-3-----3--1-----|---------1--3--3-3-3---------------3---------3--3-1--1|
G|----------------3--|--3-3--3-----------------------------3---3-3----------|
D|-------------------|------------------------------------------------------|
A|-------------------|------------------------------------------------------|
E|-------------------|------------------------------------------------------|
  (This part only
   in 2nd and 3rd
      Choruses)

Hope this is right

might add the solo near the end soon
Tap to rate this tab
# A B C D E F G H I J K L M N O P Q R S T U V W X Y Z