Song name
# A B C D E F G H I J K L M N O P Q R S T U V W X Y Z

Milburn - Showroom tab

Showroom by Milburn

Tabbed by: Sam Bettley

/= slide
h=hammer on


Intro (destortion)-

E-------8-11-8-------8-11-8-------8-11-8-|
B--6--/8--------6--/8--------6--/8-------|
G----------------------------------------| x4
D----------------------------------------|
A----------------------------------------|
E----------------------------------------|


Chorus

E----------------------------------------------------------|
B----------------------------------------------------------|
G--12----55885588------55885588----------------------------|
D--12----5588558855885555885588558855-----------8-8--------|
A--10----3366336655885533663366558855-8-8-10-10-----10-10--|
E----------------336633--------336633----------------------|

-------------------------------------------------------------------|
-------------------------------------------------------------------|
--5-55---------------------------8----------------------5-55-------|
--5-55-----------8-8-------8--10-8------------8-8-------5-55----8--|
--3-33-8-8-10-10-----10-10-8--10-6--8-8-10-10-----10-10-3-33-8--8--|
---------------------------6--8---------------------------------6--|


and then...

E-------8-11-8-------8-11-8-------8-11-8-------8-11-8-------8------|
B--6--/8--------6--/8--------6--/8--------6--/8--------6--/8-------|
G------------------------------------------------------------------|
D------------------------------------------------------------------|
A------------------------------------------------------------------|
E------------------------------------------------------------------|

------------------------------------------------8-----------------|
-----------------------------------------------8------------------|
------------------------------------------------------------------|
------------------------------------------------------------------|
------------------------------------------------------------------|
------------------------------------------------------------------|


then..

E--8-8----8---------------|
B--8-8----8---------------|
G------------11-11-10-10--| x4
D-------------------------|
A-------------------------|
E-------------------------|


Chorus

E----------------------------------------------------------|
B----------------------------------------------------------|
G--12----55885588------55885588----------------------------|
D--12----5588558855885555885588558855-----------8-8--------|
A--10----3366336655885533663366558855-8-8-10-10-----10-10--|
E----------------336633--------336633----------------------|

-------------------------------------------------------------------|
-------------------------------------------------------------------|
--5-55---------------------------8----------------------5-55-------|
--5-55-----------8-8-------8--10-8------------8-8-------5-55----8--|
--3-33-8-8-10-10-----10-10-8--10-6--8-8-10-10-----10-10-3-33-8--8--|
---------------------------6--8---------------------------------6--|

then..

E--8~--------8~--------|
B--8~--------8~--------|
G----------------------|
D----------------------|
A----------------------|
E----------------------|


then..

E---------------------------------------------------|
B---------------------------------------------------|
G--55558810101212121288108-55558810101212121288108--| x2
D--55558810101212121288108-55558810101212121288108--|
A--3333668-8-10101010668-6-3333668-8-10101010668-6--|
E---------------------------------------------------|


E------8------8----8----8--|
B------8------8----8----8--|
G--------------------------| x7
D--------------------------|
A--1010---1010---55---55---|
E--8-8----8-8----33---33---|


then..

E--8~----11~----8~----11~--|
B--8~----11~----8~----11~--|
G--------------------------| x2
D--------------------------|
A--------------------------|
E--------------------------|

and finally..

E------------------------------------|
B------------------------------------|
G--12--55885588------55885588--------| x2
D--12--5588558855885555885588558855--|
A--10--3366336655885533663366558855--|
E--------------336633--------336633--|

----------------|
----------------|
--5-------------|
--5-------------|
--3--------/6\--|
----------------|

as i tabbed this by ear it might be abit rusty but it works for me
Tap to rate this tab
# A B C D E F G H I J K L M N O P Q R S T U V W X Y Z