Song name
# A B C D E F G H I J K L M N O P Q R S T U V W X Y Z

Milburn - What Will You Do When The Money Goes tab

|--------------------------------------------------------|
|--------------------------------------------------------|
|--------------------------------------------------------|
|--------------------------------------------------------|
|------------------0---0-0-0--2--3--5---5-5-3-3-2--------|
|-0---0-0-0--2--3----------------------------------------|

|--------------------------------------------------------|
|--------------------------------------------------------|
|--------------------------------------------------------|
|--------------------------------------------------------|
|-2--2--5--7---7-7-5-5-3-3--3-3-3---5--5-5-3-3-2---------|
|--------------------------------------------------------|

|--------------------------------------------------------|
|--------------------------------------------------------|
|--------------------------------------------------------|
|--------------5-----5-----5---5-------------------------|
|-2-2------------7-----7-----7---7-----------------------|
|-----3-2-0~-------------0-------------------------------|

This is my first tab but I think it's right lol.
Tap to rate this tab
# A B C D E F G H I J K L M N O P Q R S T U V W X Y Z